PrimaNota.ru - самый крупный в мире бесплатный архив песенных текстов, аккордов, табулатур и нот


Status Quo - She Knew Too Much - таба, видео

Регистрация Запомнить меня
Войти через:  Facebook Google Twitter Vk Yandex Mail.ru

Status Quo - She Knew Too Much - таба, видео

Печатать
Просмотров: 101
She Knew Too Much
Status Quo
I Didn't Mean It - B Side  1994


         E  B  A  C#m       B        E   B  A  C#m
E|-12p11-12-----------------12-12p11-12-----------------------------|
B|--------------------------------------------------------10-10-9-9-|
G|------------------------------------------------------------------|
D|------------------------------------------------------------------|
A|------------------------------------------------------------------|
E|------------------------------------------------------------------|


   B        E   B  A  C#m                     B     E
E|-12-12p11-12--------------------------------12p11-12-|
B|-------------------------------10-10-9-9-------------|
G|-----------------------------------------------------|
D|-----------------------------------------------------|
A|-----------------------------------------------------|
E|-----------------------------------------------------|

E   A         B   E
She walked on by
E   A         B
She caught my eye
    C#m
She changed tack'
  D         A          B    E
decided to stay a while


We built our home
We lived alone
The old ghost,
was following her around


E               A
She knew too much

  A
E|---------------|
B|---------------|
G|---------------|
D|-------2-------|
A|-0-2\4---4-2-2-|
E|-------------0-|

E               A
She knew too much

  A
E|---------------|
B|---------------|
G|---------------|
D|-------2-------|
A|-0-2\4---4-2-2-|
E|-------------0-|

E               A
She knew too much

  A
E|---------------|
B|---------------|
G|---------------|
D|-------2-------|
A|-0-2\4---4-2-2-|
E|-------------0-|

B
Too much for her

   own good
E|----------|
B|----------|
G|----------|
D|----------|
A|----------|
E|-3b--0----|


She knew too much
She knew too much
She knew too much
Too much for her own good


   She knew, She knew, She knew
E|------------------------------|
B|------------------------------|
G|-9---8-----7---6-----5---4----|
D|------------------------------|
A|------------------------------|
E|------------------------------|
  (I like to get the lead guitar to play the melody under the vocal here!)

E
Too much!

Too much!


She knew
She knew
She knew

B
Too much for her

   own good
E|----------|
B|----------|
G|----------|
D|----------|
A|----------|
E|-3b--0----|


(Intro-with edit)


We cruised along
loves broken song
For I knew then
that something was wrong with her
Sure enough turned bad
all that we had
It was man mean
and swallowed her up again

She knew too much
She knew too much
She knew too much
Too much for her own good

She knew too much
She knew too much
She knew too much
Too much for her own good

She knew
She knew
She knew
Too much!
Too much!

She knew
She knew
She knew
Too much
                 G#m
for her own good

G#m    A     C#m
Never again
              B       B/A  G#m
Would I even fall for her
G#m    A
Never again
           Dm
would she laugh
          (Bass Melody)
would she cry


Love falls apart
love breaks your heart
We are here now
but never around for long


Then the chorus shows the song out.

The bridge's inversions sound a little weak and remember to listen.  The bass in this 
is often mistaken for a guitar chord.
Добавлено: 27.02.2012
Другие материалы по этой песне:
  • Аккорды и текст

Страница создана 27.02.2012
http://primanota.ru/status-quo/she-knew-too-much-chords.htm
Привет, Гость.
Предлагаем пройти революционный курс по гитаре.
Подарок от PrimaNota.Ru, забирай!