PrimaNota.ru - самый крупный в мире бесплатный архив песенных текстов, аккордов, табулатур и нот


Status Quo - Juniors Wailing - текст песни, таба, видео

Регистрация Запомнить меня
Войти через:  Facebook Google Twitter Vk Yandex Mail.ru

Status Quo - Juniors Wailing - текст песни, таба, видео

Печатать
Просмотров: 127
Juniors Wailing
Status Quo
Ma Kelly 1970 & Riffs 2003



FRANCIS:
E|--------------------------------------------------------|
B|--------------------------------------------------------|
G|---------------7------------7------------7--------------|
D|-----9-9-9-7h9----9-9-9-7h9----9-9-9-7h9---9-9-9-7------|
A|--------------------------------------------------------|
E|-7-7-----------------------------------------------10-7-|

E|-------------------------------------------------|
B|-------------------------------------------------|
G|-9-9-9-7-7-7-9-9-9-7-7-7-9-9-9-7-7-7-9-9-9-7-7-7-|
D|-9-9-9-7-7-7-9-9-9-7-7-7-9-9-9-7-7-7-9-9-9-7-7-7-|
A|-7-7-7-5-5-5-7-7-7-5-5-5-7-7-7-5-5-5-7-7-7-5-5-5-|
E|-------------------------------------------------|



You can work the rest out from there.
It's quite easy when you get the jist of it.



B
Love me baby, love me when I'm down
       E                              B
I said love me baby, love me when I'm down
         F#
Yeah you gotta love me baby
             E              B
'cos there's no use hanging around



These chords back ALL the lyrics.



The Riffs version is in C so shift everything up one semitone.
There isn't alot of difference between the two... 
Добавлено: 15.04.2012
Другие материалы по этой песне:

Страница создана 25.02.2012
http://primanota.ru/status-quo/juniors-wailing-chords.htm
Привет, Гость.
Предлагаем пройти революционный курс по гитаре.
Подарок от PrimaNota.Ru, забирай!