PrimaNota.ru - самый крупный в мире бесплатный архив песенных текстов, аккордов, табулатур и нот


Status Quo - Little Lady - текст песни, таба, видео

Регистрация Запомнить меня
Войти через:  Facebook Google Twitter Vk Yandex Mail.ru

Status Quo - Little Lady - текст песни, таба, видео

Печатать
Просмотров: 202
Авторы музыки: Rick Parfitt
Авторы текста: Rick Parfitt
Little Lady

Intro:
                 
E|-------7-------------------7-------------------------|
H|---------7-------------------7-----------------------|
G|--9b11-----10-9-7-----9b11-----10-9-7----------------|
D|------------------9-------------------9--------------|
A|-----------------------------------------------------|
E|-----------------------------------------------------|

E|-------7---------------------------------------------|
H|---------7-------------------------------------------|
G|--9b11-----10-9-7-6---7---7-6------------------------|
D|--------------------9---9-------8--------------------|
A|-----------------------------------------------------|
E|-----------------------------------------------------|

E|-----------------------------------------------------|
H|-----------------------------------------------------|
G|-----------------------------------------------------|
D|-----------------------------------------------------|
A|--9-9-11--12---11-9-9-11--12---11--------------------|
E|--7-7-7-7--7-7-7--7-7-7-7--7-7-7---------------------|

E|-----------------------------------------------------|
H|-----------------------------------------------------|
G|-----------------------------------------------------|
D|-----------------------------------------------------|
A|--9-9-11--12---11-9-9-11--12---11--------------------|
E|--7-7-7-7--7-7-7--7-7-7-7--7-7-7---------------------|



                         Little Lady
                         ( Parfitt )

                          H
                         Well I saw my little lady

                         Walking down the street

                         And I asked here "Where you going to"

                         Well I saw my little lady 

                         Walking down the street

                         Said she'd found somebody new
                          F#      E         H
                         Found myself all alone
                         F#        E          H
                         Ain't no fun on your own
                          F#             E        H
                         Now I'm like a rolling stone

                         H
                         So I made another lady

                         And so many more

                         Didn't really know wich way to go

                         So I made another lady

                         And so many more

                         But no-one did I get to know
                         F#       E         H 
                         Found myself all alone
                         F#        E          H
                         Ain't no fun on your own
                          F#             E        H
                         Now I'm like a rolling stone

solo:
         E         H            E         H      
E|-----------------------------------------------------|
H|-----------------------------------------------------|
G|-----------------------------------------------------|
D|-------6-6-6------------------6-6-6------------------|
A|-6-7-9-------9-7-6-6-6--6-7-9-------9-7-6-6-6--------|
E|-----------------------------------------------------|

         E         H
E|-------------------
H|-------------------
G|-------------------
D|-------6-6-6-------
A|-6-7-9-------9-7-6-6
E|-------------------

E|-------7-------------------7-------------------------|
H|---------7-------------------7-----------------------|
G|--9b11-----10-9-7-----9b11-----10-9-7----------------|
D|------------------9-------------------9--------------|
A|-----------------------------------------------------|
E|-----------------------------------------------------|

E|-------7---------------------------------------------|
H|---------7-------------------------------------------|
G|--9b11-----10-9-7-6---7---7-6------------------------|
D|--------------------9---9----------------------------|
A|-----------------------------------------------------|
E|-----------------------------------------------------|
   F#7
E|-----------------------------------------------------|
H|-----------14-12-11--------------------14-12-11------|
G|-11-11--11----------14-13-12-11-11--11----------14-13|
D|-----------------------------------------------------|
A|-----------------------------------------------------|
E|-----------------------------------------------------|
                                         
E|-----------------------------------------------------|
H|-----------11-14-11-12----11-----------11-14-11-12---|
G|-12-11-11--------------13----10-11-11--------------13|
D|-----------------------------------------------------|
A|-----------------------------------------------------|
E|-----------------------------------------------------|
          H
E|----------------16-12-14----12--------------16-12-14-|
H|-11----12-12-12----------16----14-12-12--12----------|
G|----11-----------------------------------------------|
D|-----------------------------------------------------|
A|-----------------------------------------------------|
E|-----------------------------------------------------|
             F#7
E|----12-----------------------------------------------|
H|-16----14-----------14-11-12----11--------------14---|
G|----------11-11--11----------13----10-11-11--11------|
D|-----------------------------------------------------|
A|-----------------------------------------------------|
E|-----------------------------------------------------|
                  E
E|-----------------------------------------------------|
H|-11-12----11-----------------------------------------|
G|-------13----11-9-9--9-------------------9-----------|
D|-----------------------11-9---------9-11---11-9------|
A|----------------------------11-7-11-------------11-7-|
E|-----------------------------------------------------|
                                         F#
E|-------------------------------------------------------|
H|------------------------------------------9-9------9-9-|
G|---------9-------------------9--------9b11-----9b11----|
D|----9-11---11-9---------9-11---11-9--------------------| 
A|-11-------------11-7-11--------------------------------|
E|-------------------------------------------------------|

E|-------------------|
H|------9-9------9-9-|
G|-9b11-----9b11-----|(Continue guitar
D|-------------------| improvisation)
A|-------------------|
E|-------------------|

H-H-H-H-E-E-H-H-F#-F#-E-E-

F#-E-D-C#-H

                         H      
          verse 3:       Then I saw my little lady

                         Walking down the street

                         Didn't know where she was going to

                         So I told my little lady
 
                         Walking down the street

                         Now you know what I've been going through
                          F#       E         H
                         Found herself all alone
                         F#        E          H
                         Ain't no fun on your own 
                          F#            E        H
                         Living like a rolling stone

          Along with the intro:
                         I was like a rolling
                         I was like a rolling stone

Добавлено: 30.06.2012
Другие материалы по этой песне:

Страница создана 30.04.2012
http://primanota.ru/status-quo/little-lady-chords.htm
Привет, Гость.
Предлагаем пройти революционный курс по гитаре.
Подарок от PrimaNota.Ru, забирай!