PrimaNota.ru - самый крупный в мире бесплатный архив песенных текстов, аккордов, табулатур и нот


Staind - Me Acoustic At Mtv2 - таба, видео

Регистрация Запомнить меня
Войти через:  Facebook Google Twitter Vk Yandex Mail.ru

Staind - Me Acoustic At Mtv2 - таба, видео

Печатать
Просмотров: 107
Staind ~ Me (Acoustic @ MTV2)
1/2 step down & Drop D (C#)
Tabbed by Joey Dillon (jdavis125@yahoo.com)

First tab...take it easy on me


Intro - Verse
Eb------------------------------------------|------------------------
Bb------------------------------------------|------------------------
Gb------------------------------------------|------------------------
Db-3-3--4--3-3--4--3-3--3--4--3--4p3--------|--10--------------------
Ab-3-3-----3-3-----3-3--3-----3-------------|--8---------------------
Db-3-3-----3-3-----3-3--3-----3-------------|--8---------------------
   ...     ...     ......     .

Fill 1
Eb-------------------------------------------------------------------
bb-6-----------------------------------------------------------------
Gb--5----------------------------------------------------------------
Db---4---------------------------------------------------------------
Ab-------------------------------------------------------------------
Db-------------------------------------------------------------------

Fill 2
Eb-------------------------------------------------------------------
bb-4\6---------------------------------------------------------------
Gb----5--------------------------------------------------------------
Db-----4-------------------------------------------------------------
Ab-------------------------------------------------------------------
Db-------------------------------------------------------------------

End Verse
Eb-------------------------------------------------------------------
bb-------------------------------------------------------------------
Gb-10----------------------------------------------------------------
Db---8---------------------------------------------------------------
Ab----7--------------------------------------------------------------
Db-------------------------------------------------------------------


Chorus (Rhythm's kinda wierd)
Eb--10--10---------7-----5----|-----8--------------------------------
Bb--10--10---------7-----5----|-----8--------------------------------
Gb--12--12h13p12---7-----7----|-----10-------------------------------
Db----------------------------|--------------------------------------
Ab----------------------------|--------------------------------------
Db----------------------------|--------------------------------------

Bridge
Eb-------------------------------------------------------------------
Bb-------0-- 12>-----------------------------------------------------
Gb----------------12-----------------------0---------------0---------
Db--9--------------------10--------------7---------------7-----------
Ab---0---------------12----------------8---------------8-------------
Db-7------------------------------------------9h10p9-----------9h10p9

Last Bridge
EbEb-----------------------------------------------------------------
Bb-------0-- 12>-----------------------------------------------------
Gb----------------12-----------------------0-------------------------
Db--9--------------------10--------------7-----7---------------------
Ab---0---------------12----------------8-----8-----------------------
Db-7---------------------------------------------9-------------------



__________________________________
     
Добавлено: 25.11.2013
Другие материалы по этой песне:
  • Аккорды и текст

Страница создана 21.09.2013
http://primanota.ru/staind/me-acoustic-at-mtv2-chords.htm
Привет, Гость.
Предлагаем пройти революционный курс по гитаре.
Подарок от PrimaNota.Ru, забирай!