PrimaNota.ru - самый крупный в мире бесплатный архив песенных текстов, аккордов, табулатур и нот


Staind - Fruck you - бас-таба, видео

Регистрация Запомнить меня
Войти через:  Facebook Google Twitter Vk Yandex Mail.ru

Staind - Fruck you - бас-таба, видео

Печатать
Просмотров: 116


Intro:
F:---------------------------------|
C:---------------------------------|
G:---------------------------------|
C:-0-2-3-2-0-2-3-2-0-2-3-2-0-2-3-2-|

Break:
F:------------------|
C:------------------|
G:------------------|
C:-0-0-0-0-0-0-0-0--|

Verse:
F:---------------------------------|
C:---------------------------------|
G:-3-1-3-1-3-1-3-1-3-1-3-1-3-1-3-1-|
C:---------------------------------|

Chorus:
F:-----------------------------|
C:-----------------------------|
G:---------1-1---------3-1-3-1-|
C:-0-2-3-0-----0-2-3-0---------|

F:-------------------------|
C:-------------------------|
G:---------3-1-3-1-3-1-3-1-|
C:-0-2-3-0-----------------|

*** up 


Добавлено: 22.08.2013
Другие материалы по этой песне:
  • Аккорды и текст

Страница создана 22.08.2013
http://primanota.ru/staind/fruck-you-chords.htm
Привет, Гость.
Предлагаем пройти революционный курс по гитаре.
Подарок от PrimaNota.Ru, забирай!