PrimaNota.ru - самый крупный в мире бесплатный архив песенных текстов, аккордов, табулатур и нот


Staind - Layne - текст песни, таба, видео

Регистрация Запомнить меня
Войти через:  Facebook Google Twitter Vk Yandex Mail.ru

Staind - Layne - текст песни, таба, видео

Печатать
Просмотров: 186
Band- Staind
Song- Layne

Tuning: Ab Db Ab Db Gb Bb

Intro/Verse
----------------------------------------|-------------------------------------|
----------------------------------------|-------------------------------------|
-14\13-13-13-13/14-14-14-11-11-11-11-11-|-14\13-13-13-13/14-14-14-9-9-9-9-9---|
-0-----0--0--0-----0--0--0--0--0--0--0--|-------------------------0-0-0-0-0---|
----------------------------------------|-------------------------------------|
----------------------------------------|-------------------------------------|


Pre-Chorus
------------------------------------------------------------------------------|
------------------------------------------------------------------------------|
-----7-----7---------5-------5------7-----7---------5--------7----------------|
---7---7-----7-----5---5---5------7---7-----7-----5---5---5/-7----------------|
-7-------7-----7-5-------5------7-------7-----7-5-------5----7----------------|
------------------------------------------------------------------------------|

Chorus
Guitar 2
-14-14\----10-10----------------17-17-----------------------------------------|
------------------------------------------------------------------------------|
-11-11\----7--7-----------------14-14-----------------------------------------|
------------------------------------------------------------------------------|
------------------------------------------------------------------------------|
------------------------------------------------------------------------------|

Guitar 1 (this is the only one played live)
------------------------------------------------------------------------------|
------------------------------------------------------------------------------|
--------------------5-5-5-x---------------------------------------------------|
-12-12-12-----------5-5-5-x---------------------------------------------------|
-14-14-14--14-14\---5-5-5-x-7-----7-------------------------------------------|
-12-12-12--12-12\-----------5-----5-------------------------------------------|


Bridge
Guitar 2
------------------------------------------------------------------------------|
-5-5-5-5-----12\7-7-7-7-7------9--7--5--7---9----7--5--7----------------------|
------------------------------------------------------------------------------|
-3-3-3-3-----10\5-5-5-5-5------7--5--3--5---7----5--3--5----------------------|
------------------------------------------------------------------------------|
------------------------------------------------------------------------------|

Guitar 1
------------------------------------------------------------------------------|
------------------------------------------------------------------------------|
-----------------------12-12-12-12--14-14-14----------------------------------|
-----------------------10-10-10-10--12-12-12----------------------------------|
-10---10-10--12--12-12-10-10-10-10--12-12-12--12--12-12--12-------------------|
-8----8--8---10--10-10-10-10-10-10--12-12-12--10--10-10--10-------------------|


Interlude/Outro
------------------------------------------------------------------------------|
------------------------------------------7-----------------------------------|
---7-----7-----9--7------10-10-9------5-5-5-----------------------------------|
-----7-----7--------7----7--7--7------5-5-------------------------------------|
-7-----7-----7--------7-------------5--------0--------------------------------|
------------------------------------------------------------------------------|

Song Order:

Intro/Verse:6x
Pre-Chorus:1x
Chorus:4x
Verse:4x
Pre-Chorus1x
Chorus:4x
Bridge:4x
Interlude:1x
Chorus:4x
Outro1x
Добавлено: 13.05.2012
Другие материалы по этой песне:

Страница создана 13.05.2012
http://primanota.ru/staind/layne-chords.htm
Привет, Гость.
Предлагаем пройти революционный курс по гитаре.
Подарок от PrimaNota.Ru, забирай!