PrimaNota.ru - самый крупный в мире бесплатный архив песенных текстов, аккордов, табулатур и нот


Staind - Me - текст песни, таба, бас-таба, видео

Регистрация Запомнить меня
Войти через:  Facebook Google Twitter Vk Yandex Mail.ru

Staind - Me - текст песни, таба, бас-таба, видео

Печатать
Просмотров: 247
Авторы: Staind

name: Bryan Weber

artist: Staind

SongTitle: Me

Tabs: Ab Db Ab Db Gb Bb

p = Pull Off
\ = Slide Down
/ = Slide Up

*LISTEN TO THE CD FOR THE TIMINGS ON THESE RIFF'S!!!

Opening						
Clean Sound

1st Guitar
Bb--------------------------------------------------
Gb--------------------------------------------------
Db---------4--------4------------4----4p3-----------
Ab----3-3-----3-3-----3-3-----3-----3---------------
Db----3-3-----3-3-----3-3-----3-----3---------------
Ab--------------------------------------------------
 *  Palm Mute the 3rd fret on the D and A strings.

2nd Guitar                                                           
Bb------------------------
Gb----------------3-------
Db-----2----4-------------
Ab------------------------              
Db------------------------
Ab------------------------
*   Let these notes ring

End of Opening.
Distortion On

Bb------------------------
Gb------------------------
Db----10------------------
Ab----8-------------------              
Db----8-------------------
Ab------------------------
*   Let Ring!


Verse Riff
Repeat this twice. 
Clean Sound.
Then switch to opening riff.

Bb----6--------    Bb--/6---------
Gb------5------    Gb-----5-------    *End of Verse with
Db--------4----    Db-------3\2---      distortion on!
Ab-------------    Ab-------------
Db-------------    Db-------------
Ab-------------    Ab-------------


Chorus Riff						
Distortion on.                                  *End of 1st chorus Riff 
ONLY!

Bb------------------------------------          Bb-----------------
Gb----5-5---5-5-----------------------          Gb-----------------
Db----5-5---5-5---7-7-----------------          Db-----10----------                                                                         
Ab----3-3---3-3---5-5---5-5-----------          Ab-----10----------
Db----3-3---0-0---5-5---7-7-----------		Db-----8-----------
Ab----------------------5-5-----------		Ab-----------------

Verse Riff
See above.

Chorus Riff
See above.

Breakdown Part.
The part where Aaron sing's, "If you push me, then I won't fall..."
Clean sound.

Bb-------------0----12------------------------1--------------1-------
Gb---------------------12-------5----------------0--------------0----
Db-----9------------------0----------------3--------------3----------
Ab---------0---------------------------------------------------------
Db-7-----------------------------------------------------------------
Ab-------------------------------------------------------------------

*   To end the Breakdown just do the last 4 notes slower and add 1 more  
      note.  

Bb---------1-------------
Gb-------------0---------
Db----3------------3-----
Ab-----------------------
Db-----------------------
Ab-----------------------


Chorus Riff
See above.

End the song with the opening Riff and that's it!   

I'm almost positive this song is between 90%-100% correct 
'cause I sat by my stereo and played along to the song for
 about an hour or more picking out every little note.  
You'll have to listen to the CD to get the timing right for 
this song.  It's pretty easy though.  If you have any 
question's or comments e-mail me:
wanker_weber@yahoo.com.
Thanks!
Добавлено: 15.04.2012
Другие материалы по этой песне:

Страница создана 11.03.2012
http://primanota.ru/staind/me-chords.htm
Привет, Гость.
Предлагаем пройти революционный курс по гитаре.
Подарок от PrimaNota.Ru, забирай!