PrimaNota.ru - самый крупный в мире бесплатный архив песенных текстов, аккордов, табулатур и нот


Sonny And Cher - Unchained Melody - бас-таба, видео

Регистрация Запомнить меня
Войти через:  Facebook Google Twitter Vk Yandex Mail.ru

Sonny And Cher - Unchained Melody - бас-таба, видео

Печатать
Просмотров: 69
Tabbed by: 6METAL6BASSIST6
E-mail: petergriffinav@gmail.com

Tuning: EADG

0:15

G|------------------------------------------------------------------------------------------------|
D|------------------------------------------------------------------------------------------------|
A|3-------------------3---3-----------------------0-------------------0---0-----------------------|
E|------------------------------------------------------------------------------------------------|

G|------------------------------------------------------------------------------------------------|
D|------------------------------------------------------------------------------------------------|
A|------------------------------------------------------------------------------------2-----------|
E|1-------------------1---1-----------------------3-------------------3---3-----------------------|

G|------------------------------------------------------------------------------------------------|
D|------------------------------------------------------------------------------------------------|
A|3-------------------3---3-----------------------0-------------------0---0-----------------------|
E|------------------------------------------------------------------------------------------------|

G|------------------------------------------------------------------------------------------------|
D|------------------------------------------------------------------------------------------------|
A|--------------------------------------------------------------------------------------------2---|
E|3-------------------3---3-----------------------3-------------------3---3-----------3-----------|

0:44

G|------------------------------------------------------------------------------------------------|
D|------------------------------------------------------------------------------------------------|
A|3-------------------3---3-----------------------0-------------------0---0-----------------------|
E|------------------------------------------------------------------------------------------------|

G|------------------------------------------------------------------------------------------------|
D|------------------------------------------------------------------------------------------------|
A|------------------------------------------------------------------------------------2-----------|
E|1-------------------1---1-----------------------3-------------------3---3-----------------------|

G|------------------------------------------------------------------------------------------------|
D|------------------------------------------------------------------------------------------------|
A|3-------------------3---3-----------------------0-------------------0---0-----------------------|
E|------------------------------------------------------------------------------------------------|

G|------------------------------------------------------------------------------------------------|
D|2-------------------2---2-----------------------5-------------------5---5-----------------------|
A|------------------------------------------------------------------------------------2-----------|
E|------------------------------------------------------------------------------------------------|

1:13

G|------------------------------------------------------------------------------------------------|
D|------------------------------------------------------------------------------------------------|
A|3-------------------3---3-----------------------2-------------------2---2-----------------------|
E|------------------------------------------------------------------------------------------------|

G|------------------------------------------------------------------------------------------------|
D|------------------------------------------------------------------------------------------------|
A|0-------------------0---0-----------------------------------------------------------------------|
E|------------------------------------------------3-------------------3---3-----------3-----------|

G|------------------------------------------------------------------------------------------------|
D|------------------------------------------------------------------------------------------------|
A|------------------------------------------------------------------------------------2-----------|
E|1-------------------1---1-----------------------3-------------------3---3-----------------------|

G|------------------------------------------------------------------------------------------------|
D|------------------------------------------------------------------------------------------------|
A|3-------------------3---3-----------------------3-------------------3---3-----------3---3---3---|
E|------------------------------------------------------------------------------------------------|

1:41

G|------------------------------------------------------------------------------------------------|
D|------------------------------------------------3-------------------3---1-------------------1---|
A|------------------------------------------------------------------------------------------------|
E|1-------------------1---3-------------------3---------------------------------------------------|

G|------------------------------------------------------------------------------------------------|
D|3-------------------3---5-----------5-----------------------------------------------------------|
A|------------------------------------------------3-------------------3---3-----------3-----------|
E|------------------------------------------------------------------------------------------------|

G|------------------------------------------------------------------------------------------------|
D|------------------------------------------------3-------------------3---1-------------------1---|
A|------------------------------------------------------------------------------------------------|
E|1-------------------1---3-------------------3---------------------------------------------------|

G|------------------------------------------------------------------------------------------------|
D|--------------------3---5-----------5-----------------------------------------------------------|
A|------------------------------------------------3-------3---3-------3---3-------3---3-----------|
E|1-----------------------------------------------------------------------------------------------|

2:11

G|------------------------------------------------------------------------------------------------|
D|------------------------------------------------------------------------------------------------|
A|3-------------------3---3-----------------------0-------------------0---0-----------------------|
E|------------------------------------------------------------------------------------------------|

G|------------------------------------------------------------------------------------------------|
D|------------------------------------------------------------------------------------------------|
A|------------------------------------------------------------------------------------2-----------|
E|1-------------------1---1-----------------------3-------------------3---3-----------------------|

G|------------------------------------------------------------------------------------------------|
D|------------------------------------------------------------------------------------------------|
A|3-------------------3---3-----------------------0-------------------0---0-----------------------|
E|------------------------------------------------------------------------------------------------|

G|------------------------------------------------------------------------------------------------|
D|------------------------------------------------------------------------------------------------|
A|------------------------------------------------------------------------------------2-----------|
E|3-------------------3---3-----------------------3-------------------3---3-----------------------|

2:39

G|------------------------------------------------------------------------------------------------|
D|------------------------------------------------------------------------------------------------|
A|3-------------------3---3-----------------------0-------------------0---0-----------------------|
E|------------------------------------------------------------------------------------------------|

G|------------------------------------------------------------------------------------------------|
D|------------------------------------------------------------------------------------------------|
A|------------------------------------------------------------------------------------2-----------|
E|1-------------------1---1-----------------------3-------------------3---3-----------------------|

G|------------------------------------------------------------------------------------------------|
D|------------------------------------------------------------------------------------------------|
A|3-------------------3---3-----------------------0-------------------0---0-----------------------|
E|------------------------------------------------------------------------------------------------|

G|------------------------------------------------------------------------------------------------|
D|2-------------------2---2-----------------------5-------------------5---5-----------------------|
A|------------------------------------------------------------------------------------2-----------|
E|------------------------------------------------------------------------------------------------|

3:08

G|------------------------------------------------------------------------------------------------|
D|------------------------------------------------------------------------------------------------|
A|3-------------------3---3-----------------------2-------------------2---2-----------------------|
E|------------------------------------------------------------------------------------------------|

G|------------------------------------------------------------------------------------------------|
D|------------------------------------------------------------------------------------------------|
A|0-------------------0---0-----------------------------------------------------------------------|
E|------------------------------------------------3-------------------3---3-----------------------|

G|------------------------------------------------------------------------------------------------|
D|------------------------------------------------------------------------------------------------|
A|------------------------------------------------------------------------------------------------|
E|1-------------------1---1---------------------------3-------------------------------------------|

G|----------------------------|
D|----------------------------|
A|----------------------------|
E|----------------------------|

G|------------------------------------------------------------------------------------------------|
D|------------------------------------------------------------------------------------------------|
A|3-------------------3---3-----------------------0-------------------0---0-----------0-----------|
E|------------------------------------------------------------------------------------------------|

G|------------------------------------------------|
D|------------------------------------------------|
A|------------------------------------------------|
E|1-----------------------1---3-------------------|
Добавлено: 03.05.2016
Другие материалы по этой песне:
  • Аккорды и текст

Страница создана 03.05.2016
http://primanota.ru/sonny-and-cher/unchained-melody-chords.htm
Привет, Гость.
Предлагаем пройти революционный курс по гитаре.
Подарок от PrimaNota.Ru, забирай!