PrimaNota.ru - самый крупный в мире бесплатный архив песенных текстов, аккордов, табулатур и нот


Sonic Youth - Pattern Recognition - текст песни, таба, видео

Регистрация Запомнить меня
Войти через:  Facebook Google Twitter Vk Yandex Mail.ru

Sonic Youth - Pattern Recognition - текст песни, таба, видео

Печатать
Просмотров: 104
PATTERN RECOGNITION

Guitar 1=GGDDD#D# (Kim, both speakers)
Guitar 2=GGDDD#D# (Thurston, right speaker)
Guitar 3=CGDCGD   (Lee, left speaker)


INTRO
   Gtr 1
D#|------------------------|------------------------|------------------------|------------------------|
D#|------------------------|------------------------|------------------------|------------------------|
D |------------------------|------------------------|------------------------|------------------------|
D |------------------------|------------------------|------------------------|------------------------|
G |------------------------|------------------------|------------------------|------------------------|
G |------------------------|------------------------|------------------------|------------------------|
  |
  |Gtr 2
D#|------------------------|------------------------|------------------------|------------------------|
D#|------------------------|------------------------|------------------------|------------------------|
D |0--0--0--0--0--0--0--0--|0--0--0--0--0--0--0--0--|0--0--0--0--0--0--0--0--|0--0--0--0--0--0--0--0--|
D |0--0--0--0--0--0--0--0--|0--0--0--0--0--0--0--0--|0--0--0--0--0--0--0--0--|0--0--0--0--0--0--0--0--|
G |------------------------|------------------------|------------------------|------------------------|
G |------------------------|------------------------|------------------------|------------------------|
  |
  |Gtr 3
D |------------------------|------------------------|------------------------|------------------------|
G |------------------------|------------------------|------------------------|------------------------|
C |12/14-------------------|12/14-------------------|12/14-------------------|12/14-------------14----|
D |10/12-------------------|10/12-------------------|10/12-------------------|10/12-------------------|
G |------------------------|------------------------|------------------------|------------------------|
C |------------------------|------------------------|------------------------|------------------------|





1ST VERSE & CHORUS
   Gtr 1
D#|------------------------|------------------------|------------------------|------------------------|
D#|------------------------|------------------------|------------------------|------------------------|
D |------------------------|------------------------|------------------------|------------------------|
D |------------------------|------------------------|------------------------|------------------------|
G |0--0--0--0--0--0--0--0--|0--0--0--0--0--0--0--0--|0--0--0--0--0--0--0--0--|0--0--0--0--0--0--0--0--|
G |0--0--0--0--0--0--0--0--|0--0--0--0--0--0--0--0--|0--0--0--0--0--0--0--0--|0--0--0--0--0--0--0--0--|
  |
  |Gtr 2
D#|7-----7-----7-----7-----|7-----7-----7-----7-----|7-----7-----7-----7-----|7-----7-----7-----7-----|
D#|7--7--7--7--7--7--7--7--|7--7--7--7--7--7--7--7--|7--7--7--7--7--7--7--7--|7--7--7--7--7--7--7--7--|
D |5--5--5--5--5--5--5--5--|5--5--5--5--5--5--5--5--|5--5--5--5--5--5--5--5--|5--5--5--5--5--5--5--5--|
D |---5-----5-----5-----5--|---5-----5-----5-----5--|---5-----5-----5-----5--|---5-----5-----5-----5--|
G |------------------------|------------------------|------------------------|------------------------|
G |------------------------|------------------------|------------------------|------------------------|
  |
  |Gtr 3
D |---12-15p12-15p12-------|---------12-15~~~~~~~~--|---12-15p12-15p12-------|---------12-15\---------|
G |------------------15-12-|---12h15----------------|------------------15-12-|---12h15----------------|
C |------------------------|------------------------|------------------------|------------------------|
D |------------------------|------------------------|------------------------|------------------------|
G |------------------------|------------------------|------------------------|------------------------|
C |------------------------|------------------------|------------------------|------------------------|



   Gtr 1
D#|------------------------|------------------------|------------------------|------------------------|
D#|------------------------|------------------------|------------------------|------------------------|
D |------------------------|------------------------|------------------------|------------------------|
D |------------------------|------------------------|------------------------|------------------------|
G |0--0--0--0--0--0--0--0--|2--2--2--2--2--2--2--2--|3--3--3--3--3--3--3--3/-|7--7--7--7--7--7--7--7--|
G |0--0--0--0--0--0--0--0--|0--0--0--0--0--0--0--0--|0--0--0--0--0--0--0--0--|0--0--0--0--0--0--0--0--|
  |
  |Gtr 2
D#|5-----5/----12----------|------5-----5/----12----|---------5/-------------|12----------------------|
D#|5-----5/----12----------|------5-----5/----12----|---------5/-------------|12----------------------|
D |5-----5/----12----------|------5-----5/----12----|---------5/-------------|12----------------------|
D |5-----5/----12----------|------5-----5/----12----|---------5/-------------|12----------------------|
G |------------------------|------------------------|------------------------|------------------------|
G |------------------------|------------------------|------------------------|------------------------|
  |
  |Gtr 3
D |0--0--0--0--0--0--0--0--|0--0--0--0--0--0--0--0--|0--0--0--0--0--0--0--0--|0--0--0--0--0--0--0--0--|
G |12-12-12-12-12-12-12-12-|12/14-14-14-14-14-14-14-|14/15-15-15-15-15-15-15-|15/19-19-19-19-19-19-19-|
C |12-12-12-12-12-12-12-12-|12/14-14-14-14-14-14-14-|14/15-15-15-15-15-15-15-|15/19-19-19-19-19-19-19-|
D |0--0--0--0--0--0--0--0--|0--0--0--0--0--0--0--0--|0--0--0--0--0--0--0--0--|0--0--0--0--0--0--0--0--|
G |------------------------|------------------------|------------------------|------------------------|
C |------------------------|------------------------|------------------------|------------------------|



   Gtr 1
D#|------------------------|------------------------|------------------------|------------------------|
D#|------------------------|------------------------|------------------------|------------------------|
D |------------------------|------------------------|------------------------|------------------------|
D |------------------------|------------------------|------------------------|------------------------|
G |0--0--0--0--0--0--0--0--|0--0--0--0--0--0--0--0--|0--0--0--0--0--0--0--0--|0--0--0--0--0--0--0--0--|
G |0--0--0--0--0--0--0--0--|0--0--0--0--0--0--0--0--|0--0--0--0--0--0--0--0--|0--0--0--0--0--0--0--0--|
  |
  |Gtr 2
D#|-----/7-----7-----7-----|7-----7-----7-----7-----|7-----7-----7-----7-----|7-----7-----7-----7-----|
D#|-----/7--7--7--7--7--7--|7--7--7--7--7--7--7--7--|7--7--7--7--7--7--7--7--|7--7--7--7--7--7--7--7--|
D |---------5--5--5--5--5--|5--5--5--5--5--5--5--5--|5--5--5--5--5--5--5--5--|5--5--5--5--5--5--5--5--|
D |---------5-----5-----5--|---5-----5-----5-----5--|---5-----5-----5-----5--|---5-----5-----5-----5--|
G |------------------------|------------------------|------------------------|------------------------|
G |------------------------|------------------------|------------------------|------------------------|
  |
  |Gtr 3
D |---12-15p12-15p12-------|---------12-15~~~~~~~~--|---------12-15p12-------|---15-------15----15\---|
G |------------------15-12-|---12h15----------------|---12h15----------15-12-|15-------15----15-------|
C |------------------------|------------------------|------------------------|------------------------|
D |------------------------|------------------------|------------------------|------------------------|
G |------------------------|------------------------|------------------------|------------------------|
C |------------------------|------------------------|------------------------|------------------------|



   Gtr 1
D#|------------------------|------------------------|------------------------|------------------------|
D#|------------------------|------------------------|------------------------|------------------------|
D |------------------------|------------------------|------------------------|------------------------|
D |------------------------|------------------------|------------------------|------------------------|
G |0--0--0--0--0--0--0--0--|2--2--2--2--2--2--2--2--|3--3--3--3--3--3--3--3/-|7--7--7--7--7--7--7--7--|
G |0--0--0--0--0--0--0--0--|0--0--0--0--0--0--0--0--|0--0--0--0--0--0--0--0--|0--0--0--0--0--0--0--0--|
  |
  |Gtr 2
D#|5-----5/----12----------|------5-----5/----12----|---------5/-------------|12\---------------------|
D#|5-----5/----12----------|------5-----5/----12----|---------5/-------------|12\---------------------|
D |5-----5/----12----------|------5-----5/----12----|---------5/-------------|12\---------------------|
D |5-----5/----12----------|------5-----5/----12----|---------5/-------------|12\---------------------|
G |------------------------|------------------------|------------------------|------------------------|
G |------------------------|------------------------|------------------------|------------------------|
  |
  |Gtr 3
D |0--0--0--0--0--0--0--0--|0--0--0--0--0--0--0--0--|0--0--0--0--0--0--0--0--|0--0--0--0--0--0--0-----|
G |12-12-12-12-12-12-12-12-|12/14-14-14-14-14-14-14-|14/15-15-15-15-15-15-15/|19-19-19-19-19-19-19\---|
C |12-12-12-12-12-12-12-12-|12/14-14-14-14-14-14-14-|14/15-15-15-15-15-15-15/|19-19-19-19-19-19-19\---|
D |0--0--0--0--0--0--0--0--|0--0--0--0--0--0--0--0--|0--0--0--0--0--0--0--0--|0--0--0--0--0--0--0-----|
G |------------------------|------------------------|------------------------|------------------------|
C |------------------------|------------------------|------------------------|------------------------|



   Gtr 1
D#|------------------------|------------------------------|
D#|------------------------|------------------------------|
D |------------------------|------------------------------|
D |12-12-12-12-10-10-10-10-|8--8--8--8--8--8--0--0--0--0--|
G |12-12-12-12-10-10-10-10-|8--8--8--8--8--8--0--0--0--0--|
G |------------------------|------------------------------|
  |
  |Gtr 2
D#|------------------------|------------------------------|
D#|12-12/13-13/14-14/15-15/|16-16/17-17/18-18/19-19/20-20-|
D |12-12/13-13/14-14/15-15/|16-16/17-17/18-18/19-19/20-20-|
D |------------------------|------------------------------|
G |------------------------|------------------------------|
G |------------------------|------------------------------|
  |
  |Gtr 3
D |0-----------0-----------|0-----------------------------|
G |12----------10----------|8-----------------------------|
C |12----------10----------|8-----------------------------|
D |0-----------0-----------|0-----------------------------|
G |------------------------|------------------------------|
C |------------------------|------------------------------|



   Gtr 1
D#|------------------------|------------------------------|
D#|------------------------|------------------------------|
D |------------------------|------------------------------|
D |12-12-12-12-10-10-10-10-|8--8--8--8--8--8--0--0--0--0--|
G |12-12-12-12-10-10-10-10-|8--8--8--8--8--8--0--0--0--0--|
G |------------------------|------------------------------|
  |
  |Gtr 2
D#|------------------------|------------------------------|
D#|12-12/13-13/14-14/15-15/|16-16/17-17/18-18/19-19/20-20-|
D |12-12/13-13/14-14/15-15/|16-16/17-17/18-18/19-19/20-20-|
D |------------------------|------------------------------|
G |------------------------|------------------------------|
G |------------------------|------------------------------|
  |
  |Gtr 3
D |0-----------0-----------|0-----------------------------|
G |12----------10----------|8-----------------------------|
C |12----------10----------|8-----------------------------|
D |0-----------0-----------|0-----------------------------|
G |------------------------|------------------------------|
C |------------------------|------------------------------|



   Gtr 1
D#|------------------------|------------------------------|
D#|------------------------|------------------------------|
D |------------------------|------------------------------|
D |12-12-12-12-10-10-10-10-|8--8--8--8--8--8--0--0--0--0--|
G |12-12-12-12-10-10-10-10-|8--8--8--8--8--8--0--0--0--0--|
G |------------------------|------------------------------|
  |
  |Gtr 2
D#|------------------------|------------------------------|
D#|12-12/13-13/14-14/15-15/|16-16/17-17/18-18/19-19/20-20-|
D |12-12/13-13/14-14/15-15/|16-16/17-17/18-18/19-19/20-20-|
D |------------------------|------------------------------|
G |------------------------|------------------------------|
G |------------------------|------------------------------|
  |
  |Gtr 3
D |0-----------0-----------|0-----------------------------|
G |12----------10----------|8-----------------------------|
C |12----------10----------|8-----------------------------|
D |0-----------0-----------|0-----------------------------|
G |------------------------|------------------------------|
C |------------------------|------------------------------|



   Gtr 1
D#|------------------------|------------------|------------------------|------------------------|
D#|------------------------|------------------|------------------------|------------------------|
D |------------------------|------------------|0--0--0--0--0--0--0--0--|0--0--0--0--0--0--0--0--|
D |12-12-12-12-10-10-10-10-|8--8--8--8--8--8--|0--0--0--0--0--0--0--0--|0--0--0--0--0--0--0--0--|
G |12-12-12-12-10-10-10-10-|8--8--8--8--8--8--|0--0--0--0--0--0--0--0--|0--0--0--0--0--0--0--0--|
G |------------------------|------------------|0--0--0--0--0--0--0--0--|0--0--0--0--0--0--0--0--|
  |
  |Gtr 2
D#|------------------------|------------------|------------------------|------------------------|
D#|12-12/13-13/14-14/15-15/|16-16/17-17/18-18-|------------------------|------------------------|
D |12-12/13-13/14-14/15-15/|16-16/17-17/18-18-|--------<12><12><12><12>|<12><12><12><12><12><12>|
D |------------------------|------------------|--------<12><12><12><12>|<12><12><12><12><12><12>|
G |------------------------|------------------|------------------------|------------------------|
G |------------------------|------------------|------------------------|------------------------|
  |
  |Gtr 3
D |0-----------0-----------|0-----------------|------0--0--0--0--0--0--|0--0--0--0--0--0--0--0--|
G |12----------10----------|8-----------------|------7--7--7--7--7--7--|7--7--7--7--7--7--7--7--|
C |12----------10----------|8-----------------|------7--7--7--7--7--7--|7--7--7--7--7--7--7--7--|
D |0-----------0-----------|0-----------------|0--0--0--0--0--0--0--0--|0--0--0--0--0--0--0--0--|
G |------------------------|------------------|0--0--0--0--0--0--0--0--|0--0--0--0--0--0--0--0--|
C |------------------------|------------------|------------------------|------------------------|





2ND VERSE & CHORUS
   Gtr 1
D#|------------------------|------------------------|------------------------|------------------------|
D#|------------------------|------------------------|------------------------|------------------------|
D |------------------------|------------------------|------------------------|------------------------|
D |------------------------|------------------------|------------------------|------------------------|
G |0--0--0--0--0--0--0--0--|0--0--0--0--0--0--0--0--|0--0--0--0--0--0--0--0--|0--0--0--0--0--0--0--0--|
G |0--0--0--0--0--0--0--0--|0--0--0--0--0--0--0--0--|0--0--0--0--0--0--0--0--|0--0--0--0--0--0--0--0--|
  |
  |Gtr 2
D#|7-----7-----7-----7-----|7-----7-----7-----7-----|7-----7-----7-----7-----|7-----7-----7-----7-----|
D#|7--7--7--7--7--7--7--7--|7--7--7--7--7--7--7--7--|7--7--7--7--7--7--7--7--|7--7--7--7--7--7--7--7--|
D |5--5--5--5--5--5--5--5--|5--5--5--5--5--5--5--5--|5--5--5--5--5--5--5--5--|5--5--5--5--5--5--5--5--|
D |---5-----5-----5-----5--|---5-----5-----5-----5--|---5-----5-----5-----5--|---5-----5-----5-----5--|
G |------------------------|------------------------|------------------------|------------------------|
G |------------------------|------------------------|------------------------|------------------------|
  |
  |Gtr 3
D |---12-15p12-15p12-------|---------15-15~~~~~~~~--|---12h15----15p12----12-|---15----12----15-------|
G |------------------15-12-|---12h15----------------|------------------15----|15----15----15----15\---|
C |------------------------|------------------------|------------------------|------------------------|
D |------------------------|------------------------|------------------------|------------------------|
G |------------------------|------------------------|------------------------|------------------------|
C |------------------------|------------------------|------------------------|------------------------|



   Gtr 1
D#|------------------------|------------------------|------------------------|------------------------|
D#|------------------------|------------------------|------------------------|------------------------|
D |------------------------|------------------------|------------------------|------------------------|
D |------------------------|------------------------|------------------------|------------------------|
G |0--0--0--0--0--0--0--0--|2--2--2--2--2--2--2--2--|3--3--3--3--3--3--3--3/-|7--7--7--7--7--7--7--7--|
G |0--0--0--0--0--0--0--0--|0--0--0--0--0--0--0--0--|0--0--0--0--0--0--0--0--|0--0--0--0--0--0--0--0--|
  |
  |Gtr 2
D#|5-----5/----12----------|------5-----5/----------|12----------------5/----|12----------------5----/|
D#|5-----5/----12----------|------5-----5/----------|12----------------5/----|12----------------5----/|
D |5-----5/----12----------|------5-----5/----------|12----------------5/----|12----------------5-----|
D |5-----5/----12----------|------5-----5/----------|12----------------5/----|12----------------5-----|
G |------------------------|------------------------|------------------------|------------------------|
G |------------------------|------------------------|------------------------|------------------------|
  |
  |Gtr 3
D |0--0--0--0--0--0--0--0--|0--0--0--0--0--0--0--0--|0--0--0--0--0--0--0--0--|0--0--0--0--0--0--0-----|
G |12-12-12-12-12-12-12-12-|12/14-14-14-14-14-14-14-|12-12-12-12-12-12-12-12/|15-15-15-15-15-15-15\---|
C |12-12-12-12-12-12-12-12-|12/14-14-14-14-14-14-14-|12-12-12-12-12-12-12-12/|15-15-15-15-15-15-15\---|
D |0--0--0--0--0--0--0--0--|0--0--0--0--0--0--0--0--|0--0--0--0--0--0--0--0--|0--0--0--0--0--0--0-----|
G |------------------------|------------------------|------------------------|------------------------|
C |------------------------|------------------------|------------------------|------------------------|



   Gtr 1
D#|------------------------|------------------------|------------------------|------------------------|
D#|------------------------|------------------------|------------------------|------------------------|
D |------------------------|------------------------|------------------------|------------------------|
D |------------------------|------------------------|------------------------|------------------------|
G |0--0--0--0--0--0--0--0--|0--0--0--0--0--0--0--0--|0--0--0--0--0--0--0--0--|0--0--0--0--0--0--0--0--|
G |0--0--0--0--0--0--0--0--|0--0--0--0--0--0--0--0--|0--0--0--0--0--0--0--0--|0--0--0--0--0--0--0--0--|
  |
  |Gtr 2
D#|7-\5/-7-----7-----7-----|7-----7-----7-----7-----|7-----7-----7-----7-----|7-----7-----7-----7-----|
D#|7-\5/-7--7--7--7--7--7--|7--7--7--7--7--7--7--7--|7--7--7--7--7--7--7--7--|7--7--7--7--7--7--7--7--|
D |---------5--5--5--5--5--|5--5--5--5--5--5--5--5--|5--5--5--5--5--5--5--5--|5--5--5--5--5--5--5--5--|
D |---------5-----5-----5--|---5-----5-----5-----5--|---5-----5-----5-----5--|---5-----5-----5-----5--|
G |------------------------|------------------------|------------------------|------------------------|
G |------------------------|------------------------|------------------------|------------------------|
  |
  |Gtr 3
D |---------12-15p12-------|---------12-15~~~~~~~~--|---------12-15p12----12/|17~17~17~17~17\---------|
G |---12h15----------15-12-|---12h15----------------|---12h15----------15----|------------------------|
C |------------------------|------------------------|------------------------|------------------------|
D |------------------------|------------------------|------------------------|------------------------|
G |------------------------|------------------------|------------------------|------------------------|
C |------------------------|------------------------|------------------------|------------------------|



   Gtr 1
D#|------------------------|------------------------|------------------------|------------------------|
D#|------------------------|------------------------|------------------------|------------------------|
D |------------------------|------------------------|------------------------|------------------------|
D |------------------------|------------------------|------------------------|------------------------|
G |0--0--0--0--0--0--0--0--|2--2--2--2--2--2--2--2--|3--3--3--3--3--3--3--3/-|7--7--7--7--7--7--7--7--|
G |0--0--0--0--0--0--0--0--|0--0--0--0--0--0--0--0--|0--0--0--0--0--0--0--0--|0--0--0--0--0--0--0--0--|
  |
  |Gtr 2
D#|5-----5/----12----------|------5/----12----------|5/----------12----------|5/----------------------|
D#|5-----5/----12----------|------5/----12----------|5/----------12----------|5/----------------------|
D |5-----5/----12----------|------5/----12----------|5/----------12----------|5/----------------------|
D |5-----5/----12----------|------5/----12----------|5/----------12----------|5/----------------------|
G |------------------------|------------------------|------------------------|------------------------|
G |------------------------|------------------------|------------------------|------------------------|
  |
  |Gtr 3
D |0--0--0--0--0--0--0--0--|0--0--0--0--0--0--0--0--|0--0--0--0--0--0--0--0--|0--0--0--0--0--0--0-----|
G |12-12-12-12-12-12-12-12-|12/14-14-14-14-14-14-14\|12-12/15-15-15-15/17-17-|17/19-19-19-19-19-19\---|
C |12-12-12-12-12-12-12-12-|12/14-14-14-14-14-14-14\|12-12/15-15-15-15/17-17-|17/19-19-19-19-19-19\---|
D |0--0--0--0--0--0--0--0--|0--0--0--0--0--0--0--0--|0--0--0--0--0--0--0--0--|0--0--0--0--0--0--0-----|
G |------------------------|------------------------|------------------------|------------------------|
C |------------------------|------------------------|------------------------|------------------------|



   Gtr 1
D#|------------------------|------------------------------|
D#|------------------------|------------------------------|
D |------------------------|------------------------------|
D |12-12-12-12-10-10-10-10-|8--8--8--8--8--8--0--0--0--0--|
G |12-12-12-12-10-10-10-10-|8--8--8--8--8--8--0--0--0--0--|
G |------------------------|------------------------------|
  |
  |Gtr 2
D#|------------------------|------------------------------|
D#|12-12/13-13/14-14/15-15/|16-16/17-17/18-18/19-19/20-20-|
D |12-12/13-13/14-14/15-15/|16-16/17-17/18-18/19-19/20-20-|
D |------------------------|------------------------------|
G |------------------------|------------------------------|
G |------------------------|------------------------------|
  |
  |Gtr 3
D |0-----------0-----------|0-----------------------------|
G |12----------10----------|8-----------------------------|
C |12----------10----------|8-----------------------------|
D |0-----------0-----------|0-----------------------------|
G |------------------------|------------------------------|
C |------------------------|------------------------------|



   Gtr 1
D#|------------------------|------------------------------|
D#|------------------------|------------------------------|
D |------------------------|------------------------------|
D |12-12-12-12-10-10-10-10-|8--8--8--8--8--8--0--0--0--0--|
G |12-12-12-12-10-10-10-10-|8--8--8--8--8--8--0--0--0--0--|
G |------------------------|------------------------------|
  |
  |Gtr 2
D#|------------------------|------------------------------|
D#|12-12/13-13/14-14/15-15/|16-16/17-17/18-18/19-19/20-20-|
D |12-12/13-13/14-14/15-15/|16-16/17-17/18-18/19-19/20-20-|
D |------------------------|------------------------------|
G |------------------------|------------------------------|
G |------------------------|------------------------------|
  |
  |Gtr 3
D |0-----------0-----------|0-----------------------------|
G |12----------10----------|8-----------------------------|
C |12----------10----------|8-----------------------------|
D |0-----------0-----------|0-----------------------------|
G |------------------------|------------------------------|
C |------------------------|------------------------------|



   Gtr 1
D#|------------------------|------------------------------|
D#|------------------------|------------------------------|
D |------------------------|------------------------------|
D |12-12-12-12-10-10-10-10-|8--8--8--8--8--8--0--0--0--0--|
G |12-12-12-12-10-10-10-10-|8--8--8--8--8--8--0--0--0--0--|
G |------------------------|------------------------------|
  |
  |Gtr 2
D#|------------------------|------------------------------|
D#|12-12/13-13/14-14/15-15/|16-16/17-17/18-18/19-19/20-20-|
D |12-12/13-13/14-14/15-15/|16-16/17-17/18-18/19-19/20-20-|
D |------------------------|------------------------------|
G |------------------------|------------------------------|
G |------------------------|------------------------------|
  |
  |Gtr 3
D |0-----------0-----------|0-----------------------------|
G |12----------10----------|8-----------------------------|
C |12----------10----------|8-----------------------------|
D |0-----------0-----------|0-----------------------------|
G |------------------------|------------------------------|
C |------------------------|------------------------------|



   Gtr 1
D#|------------------------|------------------|------------------------|------------------------|
D#|------------------------|------------------|------------------------|------------------------|
D |------------------------|------------------|0--0--0--0--0--0--0--0--|0--0--0--0--0--0--0--0--|
D |12-12-12-12-10-10-10-10-|8--8--8--8--8--8--|0--0--0--0--0--0--0--0--|0--0--0--0--0--0--0--0--|
G |12-12-12-12-10-10-10-10-|8--8--8--8--8--8--|0--0--0--0--0--0--0--0--|0--0--0--0--0--0--0--0--|
G |------------------------|------------------|0--0--0--0--0--0--0--0--|0--0--0--0--0--0--0--0--|
  |
  |Gtr 2
D#|------------------------|------------------|------------------------|------------------------|
D#|12-12/13-13/14-14/15-15/|16-16/17-17/18-18-|------------------------|------------------------|
D |12-12/13-13/14-14/15-15/|16-16/17-17/18-18-|--------<12><12><12><12>|<12><12><12><12><12><12>|
D |------------------------|------------------|--------<12><12><12><12>|<12><12><12><12><12><12>|
G |------------------------|------------------|------------------------|------------------------|
G |------------------------|------------------|------------------------|------------------------|
  |
  |Gtr 3
D |0-----------0-----------|0-----------------|------0--0--0--0--0--0--|0--0--0--0--0--0--0--0--|
G |12----------10----------|8-----------------|------7--7--7--7--7--7--|7--7--7--7--7--7--7--7--|
C |12----------10----------|8-----------------|------7--7--7--7--7--7--|7--7--7--7--7--7--7--7--|
D |0-----------0-----------|0-----------------|0--0--0--0--0--0--0--0--|0--0--0--0--0--0--0--0--|
G |------------------------|------------------|0--0--0--0--0--0--0--0--|0--0--0--0--0--0--0--0--|
C |------------------------|------------------|------------------------|------------------------|





SOLO SECTION
   Gtr 1
D#|------------------------|------------------------|------------------------|------------------------|
D#|------------------------|------------------------|------------------------|------------------------|
D |------------------------|0-----------------------|------------------------|------------------------|
D |------------------------|0-----------------------|------------------------|------------------------|
G |------------------------|0-----------------------|------------------------|------------------------|
G |------------------------|0-----------------------|------------------------|------------------------|
  |
  |Gtr 2
D#|------------------------|------------------------|------------------------|------------------------|
D#|------------------------|------------------------|------------------------|------------------------|
D |<12><12><12><12><12><12>|<12><12><12><12><12><12>|<12><12><12><12><12><12>|<12><12><12><12><12><12>|
D |<12><12><12><12><12><12>|<12><12><12><12><12><12>|<12><12><12><12><12><12>|<12><12><12><12><12><12>|
G |------------------------|------------------------|------------------------|------------------------|
G |------------------------|------------------------|------------------------|------------------------|
  |
  |Gtr 3
D |0-----------------------|------------------------|------------------------|------------------------|
G |7-----------------------|(7)--------\-1/--\-1/---|(7)--\-1/--\-1/--\-1/---|(7)^^^^^^^^^^^^^^^^^^^--|
C |7-----------------------|(7)---------\/----\/----|(7)---\/----\/----\/----|(7)^^^^^^^^^^^^^^^^^^^--|
D |0-----------------------|------------------------|------------------------|------------------------|
G |0-----------------------|------------------------|------------------------|------------------------|
C |------------------------|------------------------|------------------------|------------------------|



   Gtr 1
D#|------0-----------0-----|------0-----------0-----|------0-----------0-----|------0-----------0-----|
D#|------0-----------0-----|------0-----------0-----|------0-----------0-----|------0-----------0-----|
D |0-----0-----0-----0-----|0-----0-----0-----0-----|0-----0-----0-----0-----|0-----0-----0-----0-----|
D |0-----0-----0-----0-----|0-----0-----0-----0-----|0-----0-----0-----0-----|0-----0-----0-----0-----|
G |0-----------0-----------|0-----------0-----------|0-----------0-----------|0-----------0-----------|
G |0-----------0-----------|0-----------0-----------|0-----------0-----------|0-----------0-----------|
  |
  |Gtr 2
D#|------------------------|------------------------|------------------------|------------------------|
D#|------------------------|------------------------|------------------------|------------------------|
D |<12><12><12><12><12><12>|<12><12><12><12><12><12>|<12><12><12><12><12><12>|<12><12><12><12><12><12>|
D |<12><12><12><12><12><12>|<12><12><12><12><12><12>|<12><12><12><12><12><12>|<12><12><12><12><12><12>|
G |------------------------|------------------------|------------------------|------------------------|
G |------------------------|------------------------|------------------------|------------------------|
  |
  |Gtr 3 (Lots of noise and feedback here. Possibly random harmonics and/or picking behind the bridge?)
D |!-----------------------|$-----------------------|@-----------------------|!-----------------------|
G |&-----------------------|@-----------------------|^-----------------------|%-----------------------|
C |$-----------------------|!-----------------------|$-----------------------|^-----------------------|
D |@-----------------------|&-----------------------|%-----------------------|&-----------------------|
G |%-----------------------|^-----------------------|&-----------------------|@-----------------------|
C |^-----------------------|%-----------------------|!-----------------------|$-----------------------|



   Gtr 1
D#|------0-----------0-----|------0-----------0-----|------0-----------0-----|------0-----------0-----|
D#|------0-----------0-----|------0-----------0-----|------0-----------0-----|------0-----------0-----|
D |0-----0-----0-----0-----|0-----0-----0-----0-----|0-----0-----0-----0-----|0-----0-----0-----0-----|
D |0-----0-----0-----0-----|0-----0-----0-----0-----|0-----0-----0-----0-----|0-----0-----0-----0-----|
G |0-----------0-----------|0-----------0-----------|0-----------0-----------|0-----------0-----------|
G |0-----------0-----------|0-----------0-----------|0-----------0-----------|0-----------0-----------|
  |
  |Gtr 2
D#|------------------------|------------------------|------------------------|------------------------|
D#|------------------------|------------------------|------------------------|------------------------|
D |<12><12><12><12><12><12>|<12><12><12><12><12><12>|<12><12><12><12><12><12>|<12><12><12><12><12><12>|
D |<12><12><12><12><12><12>|<12><12><12><12><12><12>|<12><12><12><12><12><12>|<12><12><12><12><12><12>|
G |------------------------|------------------------|------------------------|------------------------|
G |------------------------|------------------------|------------------------|------------------------|
  |
  |Gtr 3
D |!-----------------------|$-----------------------|@-----------------------|!-----------------------|
G |&-----------------------|@-----------------------|^-----------------------|%-----------------------|
C |$-----------------------|!-----------------------|$-----------------------|^-----------------------|
D |@-----------------------|&-----------------------|%-----------------------|&-----------------------|
G |%-----------------------|^-----------------------|&-----------------------|@-----------------------|
C |^-----------------------|%-----------------------|!-----------------------|$-----------------------|



   Gtr 1
D#|------0-----------0-----|------0-----------0-----|------0-----------0-----|------0-----------0-----|
D#|------0-----------0-----|------0-----------0-----|------0-----------0-----|------0-----------0-----|
D |0-----0-----0-----0-----|0-----0-----0-----0-----|0-----0-----0-----0-----|0-----0-----0-----0-----|
D |0-----0-----0-----0-----|0-----0-----0-----0-----|0-----0-----0-----0-----|0-----0-----0-----0-----|
G |0-----------0-----------|0-----------0-----------|0-----------0-----------|0-----------0-----------|
G |0-----------0-----------|0-----------0-----------|0-----------0-----------|0-----------0-----------|
  |
  |Gtr 2
D#|------------------------|------------------------|------------------------|------------------------|
D#|------------------------|------------------------|------------------------|------------------------|
D |<12><12><12><12><12><12>|<12><12><12><12><12><12>|<12><12><12><12><12><12>|<12><12><12><12><12><12>|
D |<12><12><12><12><12><12>|<12><12><12><12><12><12>|<12><12><12><12><12><12>|<12><12><12><12><12><12>|
G |------------------------|------------------------|------------------------|------------------------|
G |------------------------|------------------------|------------------------|------------------------|
  |
  |Gtr 3
D |!-----------------------|$-----------------------|@-----------------------|!-----------------------|
G |&-----------------------|@-----------------------|^-----------------------|%-----------------------|
C |$-----------------------|!-----------------------|$-----------------------|^-----------------------|
D |@-----------------------|&-----------------------|%-----------------------|&-----------------------|
G |%-----------------------|^-----------------------|&-----------------------|@-----------------------|
C |^-----------------------|%-----------------------|!-----------------------|$-----------------------|



   Gtr 1
D#|------0-----------0-----|------0-----------0-----|------0-----------0-----|------0-----------0-----|
D#|------0-----------0-----|------0-----------0-----|------0-----------0-----|------0-----------0-----|
D |0-----0-----0-----0-----|0-----0-----0-----0-----|0-----0-----0-----0-----|0-----0-----0-----0-----|
D |0-----0-----0-----0-----|0-----0-----0-----0-----|0-----0-----0-----0-----|0-----0-----0-----0-----|
G |0-----------0-----------|0-----------0-----------|0-----------0-----------|0-----------0-----------|
G |0-----------0-----------|0-----------0-----------|0-----------0-----------|0-----------0-----------|
  |
  |Gtr 2
D#|------------------------|------------------------|------------------------|------------------------|
D#|------------------------|------------------------|------------------------|------------------------|
D |<12><12><12><12><12><12>|<12><12><12><12><12><12>|<12><12><12><12><12><12>|<12><12><12><12><12><12>|
D |<12><12><12><12><12><12>|<12><12><12><12><12><12>|<12><12><12><12><12><12>|<12><12><12><12><12><12>|
G |------------------------|------------------------|------------------------|------------------------|
G |------------------------|------------------------|------------------------|------------------------|
  |
  |Gtr 3
D |!-----------------------|$-----------------------|@-----------------------|!-----------------------|
G |&-----------------------|@-----------------------|^-----------------------|%-----------------------|
C |$-----------------------|!-----------------------|$-----------------------|^-----------------------|
D |@-----------------------|&-----------------------|%-----------------------|&-----------------------|
G |%-----------------------|^-----------------------|&-----------------------|@-----------------------|
C |^-----------------------|%-----------------------|!-----------------------|$-----------------------|



   Gtr 1
D#|------0-----------0-----|------0-----------0-----|------0-----------0-----|------0-----------0-----|
D#|------0-----------0-----|------0-----------0-----|------0-----------0-----|------0-----------0-----|
D |0-----0-----0-----0-----|0-----0-----0-----0-----|0-----0-----0-----0-----|0-----0-----0-----0-----|
D |0-----0-----0-----0-----|0-----0-----0-----0-----|0-----0-----0-----0-----|0-----0-----0-----0-----|
G |0-----------0-----------|0-----------0-----------|0-----------0-----------|0-----------0-----------|
G |0-----------0-----------|0-----------0-----------|0-----------0-----------|0-----------0-----------|
  |
  |Gtr 2
D#|------------------------|------------------------|------------------------|------------------------|
D#|------------------------|------------------------|------------------------|------------------------|
D |<12><12><12><12><12><12>|<12><12><12><12><12><12>|<12><12><12><12><12><12>|<12><12><12><12><12><12>|
D |<12><12><12><12><12><12>|<12><12><12><12><12><12>|<12><12><12><12><12><12>|<12><12><12><12><12><12>|
G |------------------------|------------------------|------------------------|------------------------|
G |------------------------|------------------------|------------------------|------------------------|
  |
  |Gtr 3
D |!-----------------------|$-----------------------|@-----------------------|!-----------------------|
G |&-----------------------|@-----------------------|^-----------------------|%-----------------------|
C |$-----------------------|!-----------------------|$-----------------------|^-----------------------|
D |@-----------------------|&-----------------------|%-----------------------|&-----------------------|
G |%-----------------------|^-----------------------|&-----------------------|@-----------------------|
C |^-----------------------|%-----------------------|!-----------------------|$-----------------------|



   Gtr 1
D#|------0-----------0-----|------0-----------0-----|0-----------------------|------------------------|
D#|------0-----------0-----|------0-----------0-----|0-----------------------|------------------------|
D |0-----0-----0-----0-----|0-----0-----0-----0-----|0-----------------------|------------------------|
D |0-----0-----0-----0-----|0-----0-----0-----0-----|0-----------------------|------------------------|
G |0-----------0-----------|0-----------0-----------|0-----------------------|------------------------|
G |0-----------0-----------|0-----------0-----------|0-----------------------|------------------------|
  |
  |Gtr 2
D#|------------------------|------------------------|------------------------|---------------------0--|
D#|------------------------|------------------------|------------------------|---------------------0--|
D |<12><12><12><12><12><12>|<12><12><12><12><12><12>|12----------------------|------------------------|
D |<12><12><12><12><12><12>|<12><12><12><12><12><12>|12----------------------|------------------------|
G |------------------------|------------------------|0-----------------------|------------------------|
G |------------------------|------------------------|0-----------------------|------------------------|
  |
  |Gtr 3
D |!-----------------------|$-----------------------|0-----------------------|------------------------|
G |&-----------------------|@-----------------------|7-----------------------|------------------------|
C |$-----------------------|!-----------------------|7-----------------------|------------------------|
D |@-----------------------|&-----------------------|0-----------------------|------------------------|
G |%-----------------------|^-----------------------|------------------------|------------------------|
C |^-----------------------|%-----------------------|7-----------------------|------------------------|



   Gtr 1
D#|0-----------------------|------------------------|0-----------------------|------------------------|
D#|0-----------------------|------------------------|0-----------------------|------------------------|
D |0-----------------------|------------------------|0-----------------------|------------------------|
D |0-----------------------|------------------------|0-----------------------|------------------------|
G |0-----------------------|------------------------|0-----------------------|------------------------|
G |0-----------------------|------------------------|0-----------------------|------------------------|
  |
  |Gtr 2
D#|------------------------|------------------------|0-----------------------|------------------------|
D#|------------------------|------------------------|0-----------------------|------------------------|
D |12----------------------|------------------------|12----------------------|------------------------|
D |12----------------------|------------------------|12----------------------|------------------------|
G |0-----------------------|------------------------|0-----------------------|------------------------|
G |0-----------------------|------------------------|0-----------------------|------------------------|
  |
  |Gtr 3
D |0-----------------------|------------------------|------------------------|------------------------|
G |7-----------------------|------------------------|------------------------|------------------------|
C |7-----------------------|------------------------|------------------------|------------------------|
D |0-----------------------|------------------------|------------------------|------------------------|
G |------------------------|------------------------|------------------------|------------------------|
C |7-----------------------|------------------------|7~~~~~~~~~~~~~~~~~~~~~~~|~~~~~~~~~~~~~~~~~~~~~~--|



   Gtr 1
D#|0-----------------------|------------------------|0-----------------------|------------------------|
D#|0-----------------------|------------------------|0-----------------------|------------------------|
D |0-----------------------|------------------------|0-----------------------|------------------------|
D |0-----------------------|------------------------|0-----------------------|------------------------|
G |0-----------------------|------------------------|0-----------------------|------------------------|
G |0-----------------------|------------------------|0-----------------------|------------------------|
  |
  |Gtr 2
D#|------------------------|------------------------|0-----------------------|------------------------|
D#|------------------------|------------------------|0-----------------------|------------------------|
D |12----------------------|------------------------|12----------------------|------------------------|
D |12----------------------|------------------------|12----------------------|------------------------|
G |0-----------------------|------------------------|0-----------------------|------------------------|
G |0-----------------------|------------------------|0-----------------------|------------------------|
  |
  |Gtr 3
D |0-----------------------|------------------------|0-----------------------|------------------------|
G |7-----------------------|------------------------|7-----------------------|(7)---------------------|
C |7-----------------------|------------------------|7-----------------------|(7)---------------------|
D |0-----------------------|------------------------|0-----------------------|------------------------|
G |------------------------|------------------------|------------------------|------------------------|
C |7-----------------------|------------------------|7-----------------------|------------------------|



   Gtr 1
D#|------------------------|------------------------|------------------------|------------------------|
D#|------------------------|------------------------|------------------------|------------------------|
D |------------------------|------------------------|------------------------|------------------------|
D |------------------------|------------------------|------------------------|------------------------|
G |------------------------|------------------------|------------------------|------------------------|
G |------------------------|------------------------|------------------------|------------------------|
  |
  |Gtr 2
D#|------------------------|------------------------|------------------------|------------------------|
D#|------------------------|------------------------|------------------------|------------------------|
D |------------------------|------------------------|------------------------|------------------------|
D |------------------------|------------------------|------------------------|------------------------|
G |------------------------|------------------------|------------------------|------------------------|
G |------------------------|------------------------|------------------------|------------------------|
  |
  |Gtr 3
D |------------------------|------------------------|------------------------|------------------------|
G |(7)---------------------|(7)---------------------|(7)---------------------|(7)---------------------|
C |(7)---------------------|(7)---------------------|(7)---------------------|(7)---------------------|
D |------------------------|------------------------|------------------------|------------------------|
G |------------------------|------------------------|------------------------|------------------------|
C |------------------------|------------------------|------------------------|------------------------|



   Gtr 1
D#|------------------------|------------------------|------------------------|------------------------|
D#|------------------------|------------------------|------------------------|------------------------|
D |------------------------|------------------------|------------------------|------------------------|
D |------------------------|------------------------|------------------------|------------------------|
G |------------------------|------------------------|------------------------|------------------------|
G |------------------------|------------------------|------------------------|------------------------|
  |
  |Gtr 2
D#|------------------------|------------------------|------------------------|------------------------|
D#|------------------------|------------------------|------------------------|------------------------|
D |------------------------|------------------------|12----12----12-12-12-13-|---13-13----13-13-13----|
D |------------------------|------------------------|0-----0-----0--0--0--0--|---0--0-----0--0--0-----|
G |------------------------|------------------------|------------------------|------------------------|
G |------------------------|------------------------|------------------------|------------------------|
  |
  |Gtr 3
D |------------------------|------------------------|------------------------|------------------------|
G |(7)---------------------|(7)---------------------|------------------------|------------------------|
C |(7)---------------------|(7)---------------------|------------------------|------------------------|
D |------------------------|------------------------|------------------------|------------------------|
G |------------------------|------------------------|------------------------|------------------------|
C |------------------------|------------------------|------------------------|------------------------|



   Gtr 1
D#|------------------------|------------------------|------------------------|------------------------|
D#|------------------------|------------------------|------------------------|------------------------|
D |------------------------|------------------------|------------------------|------------------------|
D |------------------------|------------------------|------------------------|------------------------|
G |------------------------|------------------------|------------------------|------------------------|
G |------------------------|------------------------|------------------------|------------------------|
  |
  |Gtr 2
D#|------------------------|------------------------|------------------------|------------------------|
D#|------------------------|------------------------|------------------------|------------------------|
D |12----12----12-12-12-8--|---8--8-----8--8--8-----|5-----5--3-----3--5-----|7-----7--3-----3--5-----|
D |0-----0-----0--0--0--0--|---0--0-----0--0--0-----|0-----0--0-----0--0-----|0-----0--0-----0--0-----|
G |------------------------|------------------------|------------------------|------------------------|
G |------------------------|------------------------|------------------------|------------------------|
  |
  |Gtr 3
D |------------------------|------------------------|------------------------|------------------------|
G |------------------------|------------------------|------------------------|------------------------|
C |------------------------|------------------------|------------------------|------------------------|
D |------------------------|------------------------|------------------------|------------------------|
G |------------------------|------------------------|------------------------|------------------------|
C |------------------------|------------------------|------------------------|------------------------|



   Gtr 1
D#|------------------------|------------------------|------------------------|------------------------|
D#|------------------------|------------------------|------------------------|------------------------|
D |------------------------|------------------------|------------------------|------------------------|
D |------------------------|------------------------|------------------------|------------------------|
G |------------------------|------------------------|------------------------|------------------------|
G |------------------------|------------------------|------------------------|------------------------|
  |
  |Gtr 2
D#|------------------------|------------------------|------------------------|------------------------|
D#|------------------------|------------------------|------------------------|------------------------|
D |8-----8--8--8--8--8--8--|12----12----12-12-12-13-|---13-13----13-13-13----|12----12----12-12-12-8--|
D |0-----0--0--0--0--0--0--|0-----0-----0--0--0--0--|---0--0-----0--0--0-----|0-----0-----0--0--0--0--|
G |------------------------|------------------------|------------------------|------------------------|
G |------------------------|------------------------|------------------------|------------------------|
  |
  |Gtr 3
D |------------------------|---11-------12-------12-|---10----------10----10-|---8-----8-----8-----8--|
G |------------------------|------------------------|------------------------|------------------------|
C |-----------------------/|13-------14-------14----|12-------12-------12----|10----10----------10----|
D |------------------------|------------------------|------------------------|------------------------|
G |------------------------|------------------------|------------------------|------------------------|
C |------------------------|------------------------|------------------------|------------------------|



   Gtr 1
D#|------------------------|------------------------|------------------------|------------------------|
D#|------------------------|------------------------|------------------------|------------------------|
D |------------------------|------------------------|------------------------|------------------------|
D |------------------------|------------------------|------------------------|------------------------|
G |------------------------|------------------------|------------------------|------------------------|
G |------------------------|------------------------|------------------------|------------------------|
  |
  |Gtr 2
D#|------------------------|------------------------|------------------------|------------------------|
D#|------------------------|------------------------|------------------------|------------------------|
D |---8--8-----8--8--8-----|5-----5--3-----3--5-----|7-----7--3-----3--5-----|8-----8--8--8--8--8--8--|
D |---0--0-----0--0--0-----|0-----0--0-----0--0-----|0-----0--0-----0--0-----|0-----0--0--0--0--0--0--|
G |------------------------|------------------------|------------------------|------------------------|
G |------------------------|------------------------|------------------------|------------------------|
  |
  |Gtr 3
D |---7-----7-----7-----7--|5--------3--------5-----|---7-----3--------3-----|---8-----10-------------|
G |------------------------|------------------------|------------------------|------------------------|
C |9-----9-----------9-----|------5--------------7/-|9--------------5-----5--|10----12----------------|
D |------------------------|------------------------|------------------------|------------------------|
G |------------------------|------------------------|------------------------|------------------------|
C |------------------------|------------------------|------------------------|------------------------|



   Gtr 1
D#|------------------------|------------------------|------------------------|------------------------|
D#|------------------------|------------------------|------------------------|------------------------|
D |------------------------|------------------------|------------------------|------------------------|
D |------------------------|------------------------|------------------------|------------------------|
G |0-----0-----0--0--0--0--|3-----3-----3--3--3--3--|7-----7-----7--7--7--7--|3-----3-----3--3--3--3--|
G |0-----0-----0--0--0--0--|3-----3-----3--3--3--3--|7-----7-----7--7--7--7--|3-----3-----3--3--3--3--|
  |
  |Gtr 2
D#|------------------------|------------------------|------------------------|------------------------|
D#|------------------------|------------------------|------------------------|------------------------|
D |12----12----12-12-12-13-|---13-13----13-13-13----|12----12----12-12-12-8--|---8--8-----8--8--8-----|
D |0-----0-----0--0--0--0--|---0--0-----0--0--0-----|0-----0-----0--0--0--0--|---0--0-----0--0--0-----|
G |------------------------|------------------------|------------------------|------------------------|
G |------------------------|------------------------|------------------------|------------------------|
  |
  |Gtr 3
D |---12----12----12----12-|---10----10----10----10-|---8-----8-----8-----8--|---7-----7-----7-----7--|
G |------------------------|------------------------|------------------------|------------------------|
C |14----14----------14----|12----12----------12----|10----10----------10----|9-----9-----------9-----|
D |------------------------|------------------------|------------------------|------------------------|
G |------------------------|------------------------|------------------------|------------------------|
C |------------------------|------------------------|------------------------|------------------------|



   Gtr 1
D#|------------------------|------------------------|------------------------|------------------------|
D#|------------------------|------------------------|------------------------|------------------------|
D |------------------------|------------------------|------------------------|------------------------|
D |------------------------|------------------------|------------------------|------------------------|
G |0-----0-----0--0--0--0--|3-----3-----3--3--3--3--|7-----7-----7--7--7--7--|15----15----15-15-15-15-|
G |0-----0-----0--0--0--0--|3-----3-----3--3--3--3--|7-----7-----7--7--7--7--|15----15----15-15-15-15-|
  |
  |Gtr 2
D#|------------------------|------------------------|------------------------|------------------------|
D#|------------------------|------------------------|------------------------|------------------------|
D |5-----5--3-----3--5-----|7-----7--3-----3--5-----|8-----8--8--8--8--8--8--|12----12----12-12-12-13-|
D |0-----0--0-----0--0-----|0-----0--0-----0--0-----|0-----0--0--0--0--0--0--|0-----0-----0--0--0--0--|
G |------------------------|------------------------|------------------------|------------------------|
G |------------------------|------------------------|------------------------|------------------------|
  |
  |Gtr 3
D |5--------3--5--------7--|---5--------7-----8-----|---10----8--------8-----|---12----12----12----12-|
G |------------------------|------------------------|------------------------|------------------------|
C |------5--------7/-9-----|7--------9-----10----10-|12----10-------10----10-|14----14----------14----|
D |------------------------|------------------------|------------------------|------------------------|
G |------------------------|------------------------|------------------------|------------------------|
C |------------------------|------------------------|------------------------|------------------------|



   Gtr 1
D#|------------------------|------------------------|------------------------|------------------------|
D#|------------------------|------------------------|------------------------|------------------------|
D |------------------------|------------------------|------------------------|------------------------|
D |------------------------|------------------------|------------------------|------------------------|
G |3-----3-----3--3--3--3--|0-----0-----0--0--0--0--|3-----3-----3--3--3--3--|7-----7-----7--7--7--7--|
G |3-----3-----3--3--3--3--|0-----0-----0--0--0--0--|3-----3-----3--3--3--3--|7-----7-----7--7--7--7--|
  |
  |Gtr 2
D#|------------------------|------------------------|------------------------|------------------------|
D#|------------------------|------------------------|------------------------|------------------------|
D |---13-13----13-13-13----|12----12----12-12-12-8--|---8--8-----8--8--8-----|5-----5--3-----3--5-----|
D |---0--0-----0--0--0-----|0-----0-----0--0--0--0--|---0--0-----0--0--0-----|0-----0--0-----0--0-----|
G |------------------------|------------------------|------------------------|------------------------|
G |------------------------|------------------------|------------------------|------------------------|
  |
  |Gtr 3
D |---10----10----10----10-|---8-----8-----8-----8--|---7-----7-----7-----7--|5--------3--5--------7--|
G |------------------------|------------------------|------------------------|------------------------|
C |12----12----------12----|10----10----------10----|9-----9-----------9-----|------5--------7/-9-----|
D |------------------------|------------------------|------------------------|------------------------|
G |------------------------|------------------------|------------------------|------------------------|
C |------------------------|------------------------|------------------------|------------------------|



   Gtr 1
D#|------------------------|------------------------|------------------------|
D#|------------------------|------------------------|------------------------|
D |------------------------|------------------------|------------------------|
D |------------------------|------------------------|------------------------|
G |3-----3-----3--3--3--3--|0-----0-----0--0--0--0--|3-----3-----3--3--3--3--|
G |3-----3-----3--3--3--3--|0-----0-----0--0--0--0--|3-----3-----3--3--3--3--|
  |
  |Gtr 2
D#|------------------------|------------------------|------------------------|
D#|------------------------|------------------------|------------------------|
D |7-----7--3-----3--5-----|8-----8--8--8--8--8--8--|0-----0-----0--0--0--0--|
D |0-----0--0-----0--0-----|0-----0--0--0--0--0--0--|0-----0-----0--0--0--0--|
G |------------------------|------------------------|------------------------|
G |------------------------|------------------------|------------------------|
  |
  |Gtr 3
D |---8--------7-----5-----|8--------7--------8-----|------------------------|
G |------------------------|------------------------|------------------------|
C |10-------9-----7-----7--|------9--------10----10-|------------------------|
D |------------------------|------------------------|0-----------------------|
G |------------------------|------------------------|------------------------|
C |------------------------|------------------------|------------------------|



   Gtr 1
D#|------------------------|------------------------|------------------------|------------------------|
D#|------------------------|------------------------|------------------------|------------------------|
D |0-----------------------|------------------------|------------------------|------------------------|
D |0-----------------------|------------------------|------------------------|------------------------|
G |------------------------|------------------------|------------------------|------------------------|
G |------------------------|------------------------|------------------------|------------------------|
  |
  |Gtr 2
D#|------------------------|------------------------|------------------------|------------------------|
D#|------------------------|------------------------|------------------------|------------------------|
D |0-----------------------|------------------------|------------------------|------------------12\---|
D |0-----------------------|------------------------|------------------------|------------------12\---|
G |------------------------|------------------------|------------------------|------------------------|
G |------------------------|------------------------|------------------------|------------------------|
  |
  |Gtr 3
D |------------------------|------------------------|------------------------|------------------------|
G |------------------------|------------------------|------------------------|------------------------|
C |12/14-------------------|12/14-------------------|12/14-------------------|12/14-------------------|
D |10/12-------------------|10/12-------------------|10/12-------------------|10/12-------------------|
G |------------------------|------------------------|------------------------|------------------------|
C |------------------------|------------------------|------------------------|------------------------|





3RD VERSE & CHORUS
   Gtr 1
D#|------------------------|------------------------|------------------------|------------------------|
D#|------------------------|------------------------|------------------------|------------------------|
D |------------------------|------------------------|------------------------|------------------------|
D |------------------------|------------------------|------------------------|------------------------|
G |0--0--0--0--0--0--0--0--|0--0--0--0--0--0--0--0--|0--0--0--0--0--0--0--0--|0--0--0--0--0--0--0--0--|
G |0--0--0--0--0--0--0--0--|0--0--0--0--0--0--0--0--|0--0--0--0--0--0--0--0--|0--0--0--0--0--0--0--0--|
  |
  |Gtr 2
D#|7-----7-----7-----7-----|7-----7-----7-----7-----|7-----7-----7-----7-----|7-----7-----7-----7-----|
D#|7--7--7--7--7--7--7--7--|7--7--7--7--7--7--7--7--|7--7--7--7--7--7--7--7--|7--7--7--7--7--7--7--7--|
D |5--5--5--5--5--5--5--5--|5--5--5--5--5--5--5--
Добавлено: 08.03.2012
Другие материалы по этой песне:
  • Аккорды и текст

Страница создана 08.03.2012
http://primanota.ru/sonic-youth/pattern-recognition-chords.htm
Привет, Гость.
Предлагаем пройти революционный курс по гитаре.
Подарок от PrimaNota.Ru, забирай!