PrimaNota.ru - самый крупный в мире бесплатный архив песенных текстов, аккордов, табулатур и нот


Sonic Youth - Teenage Riot - аккорды и текст, таба, бас-таба, видео

Регистрация Запомнить меня
Войти через:  Facebook Google Twitter Vk Yandex Mail.ru

Sonic Youth - Teenage Riot - аккорды и текст, таба, бас-таба, видео

Печатать
Просмотров: 768
Уроки эстрадного вокала в Санкт-Петербурге
Авторы: Kim Gordon, Lee Ranaldo, Thurston Moore, Steve Shelley

Teenage Riot
Sonic Youth
		   In article  1993Apr9.211139.29309@selway.umt.edu> you write:
Sonic Youth
Teenage Riot

tuning low to high:
GABDEG

how to tune:
tune the high  E> string to the open  G> string. tune the  B> string to
the second fret of the  D> string. tune the  G> string to the open  D>
string. tune the  D> string to the second fret of the A string. tune the
 E> string so that the second fret (of the  E> string) matches the open A
string.

The other guitar is in GGDDGG (i think), but i haven't transcribed it
because i can't hear it.  There IS however one part i have missed, but i
don't want to tune back to that terrible tuning to figure it out. (i'll
point it out when the time comes.)

                         **** |w/distortion
G----0---0----55-7777-55-0000-|--7775--5---5-000000-22222-00-
E--------0----55-5555-55-0000-|--7775--5--7--000000-22222-00-
D--0-----0-00-00-0000-00-5555-|-0-----0--7---000000-22222-00-continued
B-----------------------------|------------------------------
A-----------------------------|------------------------------
G------0----------------------|------------------------------

****= after "you're it" he plays XXX00(12) and at other times too.

        |           |
G---7775--------------000000-77777777-|---------------5-12-12-12-------------|
E---7775--------------000000-77777777-|---------------5-12-12-12-12-12-12-12-|
D--0---------5--------555555-77777777-|---------------5----------12-12-12-12-|
B---------5/7--77-57------------------|---12---12-10--7----------------------|
A-------------------------------------|---12---12-10--5----------------------|
G-------------------------------------|00-0-00-0--0---5----------------------|
        |One of the |                             |   |
        |guitars sl\|                             8x  6x
        |here, i'm  |
        |not sure of|
        |the tab.   |


  "Time to get it"    "get to you"  then they stay on this for a while
G--------------------|-5---0------|-----and make a lot of noise--------|
E--------------------|-5---0------|------------------------------------|
D-----------10-------|-5---5------|------------------------------------|
B--10-12-12-10-12-12-|-7---5------|-----10-----------------------------|
A--10-12-12----12-12-|-5----------|-----10-----------------------------|
G--0--0--0--0--0--0--|-5----------|-----0------------------------------|
                                    (circa 4:50)

the last chord i'm not too sure about, but i think it is 0X3030.
i hope you like it. BTW the mini-transcription i saw in Guitar Player was
pitiful.

IF YOU POST THIS ANYWHERE ELSE, PLEASE GIVE ME CREDIT.
thanks.
elric@selway.umt.edu
a.k.a Sam Rowe     
Добавлено: 13.09.2013
Другие материалы по этой песне:

Страница создана 23.02.2012
http://primanota.ru/sonic-youth/teenage-riot-chords.htm
Привет, Гость.
Предлагаем пройти революционный курс по гитаре.
Подарок от PrimaNota.Ru, забирай!