PrimaNota.ru - самый крупный в мире бесплатный архив песенных текстов, аккордов, табулатур и нот


Sonic Syndicate - Revolution Baby - текст песни, таба, видео

Регистрация Запомнить меня
Войти через:  Facebook Google Twitter Vk Yandex Mail.ru

Sonic Syndicate - Revolution Baby - текст песни, таба, видео

Печатать
Просмотров: 222
--------------------------------------------------------------
Artist: Sonic Syndicate
Song: Revolution, baby
-------------------------------------------------------------
Tabbed by: Eugene
Email:intel4000@inbox.ru
icq: 462315670
--------------------------------------------------------------
Tuning: Drop C (C G C F A D)
--------------------------------------------------------------

Intro / Main Riff:
---------------- x3 -------------| Three Times
----------------    -------------|
----------------    -------------|
-0-2-2-2-2-2-5-4    -2-2-2-2-2-0-|
-0-2-2-2-2-2-5-4    -2-2-2-2-2-0-|
-0-2-2-2-2-2-5-4    -2-2-2-2-2-0-|

Verse:
----------- x3 ------------|
-----------    ------------|
-----------    ------------|
-0-2-2-2-2-    -5----------|
-0-2-2-2-2-    -5-4--------|
-0-2-2-2-2-    -5-4--------|


---------------- x3 -------------|
----------------    -------------|
----------------    -------------|
-0-2-2-2-2-2-5-4    -2-2-2-2-2-0-|
-0-2-2-2-2-2-5-4    -2-2-2-2-2-0-|
-0-2-2-2-2-2-5-4    -2-2-2-2-2-0-|


Pre-chorus:
----
----
----
-10-
-10-
-10-

Chorus:
-------------------| x2
-------------------|
-------------------|
-5----0----2-----0-|
-5----0----2-----0-|
-5----0----2-----0-|
(x8) (x8) (x8) (x8)


Main Riff:
---------------- x3 -------------|
----------------    -------------|
----------------    -------------|
-0-2-2-2-2-2-5-4    -2-2-2-2-2-0-|
-0-2-2-2-2-2-5-4    -2-2-2-2-2-0-|
-0-2-2-2-2-2-5-4    -2-2-2-2-2-0-|

Verse:
----------- x3 ------------|
-----------    ------------|
-----------    ------------|
-0-2-2-2-2-    -5----------|
-0-2-2-2-2-    -5-4--------|
-0-2-2-2-2-    -5-4--------|

---------------- x3 -------------|
----------------    -------------|
----------------    -------------|
-0-2-2-2-2-2-5-4    -2-2-2-2-2-0-|
-0-2-2-2-2-2-5-4    -2-2-2-2-2-0-|
-0-2-2-2-2-2-5-4    -2-2-2-2-2-0-|


Pre-chorus:
-------------|
-------------|
-------------|
-10---9----5-|
-10---9----5-|
-10---9----5-|
(x8) (x4) (x4)

Chorus:
-------------------| x2
-------------------|
-------------------|
-5----0----2-----0-|
-5----0----2-----0-|
-5----0----2-----0-|
(x8) (x8) (x8) (x8)

Bridge:

-------------------| x2
-------------------|
-------------------|
-------------------|
-10---12---14---12-|
-10---12---14---12-|
-10---12---14---12-|
(x8) (x8) (x8) (x8)

----------------------------------------|
----------------------------------------|
----------------------------------------|
-----------------------(x2)-------------|
-10---12--12\2--2--4-5------------------|
-10---12--12\2--2--4-5---silence---24\0-|
-10---12--12\2--2--4-5-------------24\0-|
(x8) (x8)     (x14)

Chorus / Bridge:
-------------------| x4
-------------------|
-------------------|
-5----0----2-----0-|
-5----0----2-----0-|
-5----0----2-----0-|
(x8) (x8) (x8) (x8)


Outro:
----------------------------|
----------------------------|
----------------------------|
-0-2-2-2-2-2-5-4-2-2-2-0-2--|
-0-2-2-2-2-2-5-4-2-2-2-0-2--|
-0-2-2-2-2-2-5-4-2-2-2-0-2--|


----------------------------
My first tab.
Some mistakes.
Rate and comment :)
Добавлено: 25.07.2012
Другие материалы по этой песне:

Страница создана 25.07.2012
http://primanota.ru/sonic-syndicate/revolution-baby-chords.htm
Привет, Гость.
Предлагаем пройти революционный курс по гитаре.
Подарок от PrimaNota.Ru, забирай!