PrimaNota.ru - самый крупный в мире бесплатный архив песенных текстов, аккордов, табулатур и нот


Soilwork - Rejection Role - текст песни, таба, видео

Регистрация Запомнить меня
Войти через:  Facebook Google Twitter Vk Yandex Mail.ru

Soilwork - Rejection Role - текст песни, таба, видео

Печатать
Просмотров: 151
Artist: Soilwork
Piece: Rejection Role
Instrument: Guitar

Tuning: B Standard (B E A D G B)

MAIN
|-----------------------------------------------------------------|
|-5-5-5-5-5-5-5-5-5-5-5-5-5-5-5-5---------------------------------|
|---------------------------------6-6-6-6-6-6-6-6-5-5-5-5-5-------|
|-2-2-2-2-2-2-2-2-2-2-2-2-2-2-2-2---------------------------------|
|---------------------------------4-4-4-4-4-4-4-4-3-3-3-3-3-5-5-5-|
|-----------------------------------------------------------3-3-3-|
|                                                           . . .
|
|-----------------------------------------------------------------|
|-1212121212121212121212121212121210101010101010108-8-8-8-8-------|
|-----------------------------------------------------------------|
|-9-9-9-9-9-9-9-9-9-9-9-9-9-9-9-9-7-7-7-7-7-7-7-7-5-5-5-5-5-------|
|-----------------------------------------------------------5-5-5-|
|-----------------------------------------------------------3-3-3-|
                                                            . . .


|-----------------------------------------------------------------|
|-5-5-5-5-5-5-5-5-5-5-5-5-5-5-5-5-1010101010101010101010106-6-6-6-|
|-----------------------------------------------------------------|
|-2-2-2-2-2-2-2-2-2-2-2-2-2-2-2-2-7-7-7-7-7-7-7-7-7-7-7-7-3-3-3-3-|
|-----------------------------------------------------------------|
|-----------------------------------------------------------------|
|
|
|-----------------------------------------------------------------|
|-1212121212121212121212121212121517171712121212131313131310101010|
|-----------------------------------------------------------------|
|-9-9-9-9-9-9-9-9-9-9-9-9-9-9-9-121414149-9-9-9-10101010107-7-7-7-|
|-----------------------------------------------------------------|
|-----------------------------------------------------------------|

VERSE
|---9-----9---------9-----9---------9-----9-------9-9-9-9-12-12-12-14|
|--------------------------------------------------------------------|
|-7---7-7---7-7-7-7---7-7---7-7-7-7---7-7---7-7-7-7-7-7-7-10-10-10-12|
|--------------------------------------------------------------------|
|
|
|--------------------------------------------------------------------|
|-2-2-----------------------------2-2---------------------5--5--5--7-|
|-2-2-----------------------------2-2---------------------5--5--5--7-|
|-0-0-----------------------------0-0---------------------3--3--3--5-|
  . .                             . .


|---9-----9---------9-----9---------9-----9--------------------------|
|------------------------------------------------------------7-------|
|-7---7-7---7-7-7-7---7-7---7-7-7-7---7-7---7-7-9----9----9----------|
|--------------------------------------------------------------------|
|
|
|--------------------------------------------------------------------|
|-2-2-----------------------------2-2--------------------------4-----|
|-2-2-----------------------------2-2-----------5----5----5----------|
|-0-0-----------------------------0-0--------------------------------|
  . .                             . .

VERSE KICK IN
|------------------------------------------------------------------------|
|----------7-----------------------------------7-------------------------|
|-0-0----0---0----0-0-0----0-3-0----0-0-0----0---0----0-0-0----0-3-3-3-5-|


MAIN

VERSE

VERSE KICK IN

MAIN


BREAKDOWN
|-------3---------------3-----------------------------------------|
|-----------3---------------3-----------7---------------8---------|
|-----5-------5-------5-------5-------7-----7---------7-------7---|
|---5-----------5---5---------------9---------9-----9-----------9-|
|-3---------------3-------------7-7-------------7-7---------------|
|-----------------------------------------------------------------|
|
|
|---------------------------------------------------------7---7---|
|-8---8---8---8---8---8---8---8---7---7---7---7---8---8-----------|
|---7---7---7---7---7---7---7---7---7---7---7---7---7---7---7---7-|
|-----------------------------------------------------------------|
|-----------------------------------------------------------------|
|-----------------------------------------------------------------|

|-------3---------------3-----------------------------------------|
|-----------3---------------3-----------8---------------10--------|
|-----5-------5-------5-------5-------11----11--------11----11--11|
|---5-----------5---5---------------10--------10----10--------10--|
|-3---------------3-------------7-0-------------0-0---------------|
|-----------------------------------------------------------------|
|
|
|---------------------------------7---7---7---7---8---8---8---8---|
|-8---8---8---8---8---8---8---8-----8---8---8---8---10--10--10--10|
|---7---7---7---7---7---7---7---7---------------------------------|
|-----------------------------------------------------------------|
|-----------------------------------------------------------------|
|-----------------------------------------------------------------|

SOLO
|-------14Fr----------b-----------------------15-14-------------------------------------|
|---------------------------------------------------15----------------------------------|
|-----------------------------------------------------14--------------------------------|
|--------------------------------------------------------17-16-17-16-14-12-14-14--------|
|---------------------------------------------------------------------------------------|
|---------------------------------------------------------------------------------------|
|
|
|---------------------------------------------------------------------------------------|
|-5---5---5---5---------5---5---5---5----------5---5---5---5----------------------------|
|-3---3---3---3---------3---3---3---3----------3---3---3---3---2---2---2---2------------|
|--------------------------------------------------------------0---0---0---0------------|

|--------------------------------------------------------------------------------------|
|--------------------------------------------------------------------13--12------------|
|--------12----------------------------------------------12--14----------------14--12--|
|12--14------14-----12--14-------------------12--14------------------------------------|
|--------------------------------------------------------------------------------------|
|--------------------------------------------------------------------------------------|
|
|
|--------------------------------------------------------------------------------------|
|----------------------------------------5---5---5---5----------5---5---5---5----------|
|-2---2---2---2----------2---5---5---5---3---3---3---3----------3---3---3---3----------|
|-0---0---0---0----------0---3---3---3-------------------------------------------------|

|------------------------------12-12--12--------------------------12-12--12--14--14--14--|
|---------------------------12------------12-------------------12------------------------|
|-11---------------------12-------------------12------------12---------------------------|
|---------------------14--------------------------14-----14------------------------------|
|------------------14---------------------------------14---------------------------------|
|----------------------------------------------------------------------------------------|
|
|
|----------------------------------------------------------------------------------------|
|-5---7----7----7------------------------------------------------------------------------|
|-3---5----5----5---2---2---2---2-------------2---2---2---2------------------5-----------|
|-------------------0---0---0---0-------------0---0---0---0------------------3-----------|

LEAD INTERLUDE
|-17F----------------------------------------------------7-------------------------------|
|---------------12---10---------------7---8------------------7------------8--------------|
|----------------------------------------------------------------------------9-----------|
|----------------------------------------------------------------------------------------|
|----------------------------------------------------------------------------------------|
|----------------------------------------------------------------------------------------|
|
|
|----------------------------------------------------------------------------------------|
|----------------------------------------------------------------------------------------|
|---------------12---11------------------------------------------------------------------|
|------------------------------------12--14-------------12-------------------------------|
|-----------------------------------------------------------12------------10-------------|
|-----------------------------------------------------------------------------12---------|
|
|
|-5---------------------------------------7----------------------------------------------|
|-5---------------------------------------7----------------------------------------------|
|-3---------------------------------------5----------------------------------------------|
|----------------------------------------------------------------------------------------|

|-------------------------------------------------------------------------------------|
|---------------12---10------------12-10-13-------------12-10-12-----------10h12p108--|
|-------------------------------------------------------------------------------------|
|-------------------------------------------------------------------------------------|
|-------------------------------------------------------------------------------------|
|-------------------------------------------------------------------------------------|
|
|
|-------------------------------------------------------------------------------------|
|-------------------------------------------------------------------------------------|
|---------------12---11------------12-11-12-------------12-11-12-----------11h12p119--|
|-------------------------------------------------------------------------------------|
|-------------------------------------------------------------------------------------|
|-------------------------------------------------------------------------------------|
|
|
|-5------------------------------------------------------------7--|
|-5---------------------------------------7-----------------------|
|-3---------------------------------------7--------------------5--|
|-----------------------------------------5-----------------------|

|--------------------------------------------------------7-------------------------------|
|---------------12---10---------------7---8------------------7------------8--------------|
|----------------------------------------------------------------------------9-----------|
|----------------------------------------------------------------------------------------|
|----------------------------------------------------------------------------------------|
|----------------------------------------------------------------------------------------|
|
|
|----------------------------------------------------------------------------------------|
|----------------------------------------------------------------------------------------|
|---------------12---11------------------------------------------------------------------|
|------------------------------------12--14-------------12-------------------------------|
|-----------------------------------------------------------12------------10-------------|
|-----------------------------------------------------------------------------12---------|
|
|
|-5---------------------------------------7----------------------------------------------|
|-5---------------------------------------7----------------------------------------------|
|-3---------------------------------------5----------------------------------------------|
|----------------------------------------------------------------------------------------|

|----------------------------------------------------------------------------------------|
|---------------12---10------------12-10-13~~~-------------------------------------------|
|----------------------------------------------------------------------------------------|
|----------------------------------------------------------------------------------------|
|----------------------------------------------------------------------------------------|
|----------------------------------------------------------------------------------------|
|
|
|----------------------------------------------------------------------------------------|
|----------------------------------------------------------------------------------------|
|---------------12---11------------12-11-12~~~-------------------------------------------|
|----------------------------------------------------------------------------------------|
|----------------------------------------------------------------------------------------|
|----------------------------------------------------------------------------------------|
|
|
|-5-------------------------------------------------------------7--|
|-5---------------------------------------7-7-7--7--7-7-7--7--7----|
|-3---------------------------------------7-7-7--7--7-7-7--7--7-5--|
|-----------------------------------------5-5-5--5--5-5-5--5--5----|
                                          . .       . .       .


(2:56 - I will be there...)
|------------------------------------------------------------------------|
|-/12~~~-----------------------------------------------------------------|
|------------------------------------------------------------------------|
|------------------------------------------------------------------------|
|------------------------------------------------------------------------|
|------------------------------------------------------------------------|
|
|
|------------------------------------------------------------------------|
|------------------------------------------------------------------------|
|-------------------------12-12-12-12-12-12-12-12------------------------|
|-14-14-14-14-14-14-14-14-14-14-14-14-14-14-14-14------------------------|
|------------------------------------------------------------------------|
|------------------------------------------------------------------------|


MAIN
Добавлено: 23.08.2015
Другие материалы по этой песне:

Страница создана 08.03.2012
http://primanota.ru/soilwork/rejection-role-chords.htm
Привет, Гость.
Предлагаем пройти революционный курс по гитаре.
Подарок от PrimaNota.Ru, забирай!