PrimaNota.ru - самый крупный в мире бесплатный архив песенных текстов, аккордов, табулатур и нот


Soilwork - Epitome - таба, видео

Регистрация Запомнить меня
Войти через:  Facebook Google Twitter Vk Yandex Mail.ru

Soilwork - Epitome - таба, видео

Печатать
Просмотров: 111
[Epitome]
[Soilwork]
[The Panic Broadcast]

Tuning: B E A D Gb B (B Standard / 1.5 Steps Down From Standard)
joshuaoliveira@hotmail.com

[Riff 1] - [00:00] - [01:04] - [x10---------------------------------|
- ------------------------------------------------------------------|
- ------------------------------------------------------------------|
- ------------------------------------------------------------------|
- -3-3-----3-----5-----5-----2-----3-3-----3-----5-----5-----2------|
- -3-3---3-3---5-5---5-5---2-2---3-3-3---3-3---5-5---5-5---2-2---3--|
- -1-1---1-1---3-3---3-3---0-0---1-1-1---1-1---3-3---3-3---0-0---1--|
PM       .     .     .     .     .       .     .     .     .     .

last time play like this :

- -----------------------------------------------------------------|
- -----------------------------------------------------------------|
- -----------------------------------------------------------------|
- -3-3-----3-----5-----5-----2-----3-3-----3-----5-----5-----------|
- -3-3---3-3---5-5---5-5---2-2---3-3-3---3-3---5-5---5-5---7\------|
- -1-1---1-1---3-3---3-3---0-0---1-1-1---1-1---3-3---3-3-0-7\------|
PM       .     .     .     .     .       .     .     .   .

[Riff 2] - [00:13] - [00:25-----------------------------------------| - [x2]
- ------------------------------------------------------------------|
- ---9-----9-----6-----8-----8-------9-----9-----6-----8------------|
- -----9-----9-----7-----7-----7-------9-----9-----7-----7-[7v]-----|
- -6-----6-----5-----5-----5-----5-6-----6-----5-----5--------------|
- ------------------------------------------------------------------|
- ------------------------------------------------------------------|
PM .......................................................

[Riff 2] - [00:39] - [00:52] - [x2]

[Riff 3a, Guitar 1 & 2] - [01:04] - [01:17]
- -----------------------------------------------------------------|
- -----------------------------------------------------------------|
- -------------------9\7---7/9~----------------------13\9---9/7~---|
- -3---------3---2---x-x---x-x-----3---------3---2---x--x---x-x----|
- -3-3-3-3-3-3-3-2-2-7\5---5/7~----3-3-3-3-3-3-3-2-2-11\7---7/5~---|
- -1-1-1-1-1-1-1-0-0-----0---------1-1-1-1-1-1-1-0-0------0--------|
PM   .......   .   .     .           .......   .   .      .
- -----------------------------------------------------------------|
- -----------------------------------------------------------------|
- -101010101010109-9---------------101010101010109-9---------------|
- -101010101010109-9-6-6-6-6-6-6-6-101010101010109-9-6-6-6-6-3-3-2-|
- -8-8-8-8-8-8-8-7-7-x-x-x-x-x-x-x-8-8-8-8-8-8-8-7-7-x-x-x-x-x-x-x-|
- -------------------4-4-4-4-4-4-4-------------------4-4-4-4-1-1-0-|


- ------------------------------------------------------------------|
- ------------------------------------------------------------------|
- -------------------9\7---7/9~----------------------13\9---9/13/14-|
- -3---------3---2---x-x---x-x-----3---------3---2---x--x---x-x-----|
- -3-3-3-3-3-3-3-2-2-7\5---5/7~----3-3-3-3-3-3-3-2-2-11\7---7/11/12-|
- -1-1-1-1-1-1-1-0-0-----0---------1-1-1-1-1-1-1-0-0------0---------|
PM   .......   .   .     .           .......   .   .      .
- ------------------------------------------------------------------|
- ------------------------------------------------------------------|
- -101010101010109-9-9-9-9-9-9-9-9-101010101010109-9-9-9-9-7/9--\---|
- -101010101010109-9-9-9-9-9-9-9-9-101010101010109-9-9-9-9-x-x------|
- -8-8-8-8-8-8-8-7-7-7-7-7-7-7-7-7-8-8-8-8-8-8-8-7-7-7-7-7-5/7--\---|
- ------------------------------------------------------------------|

[Riff 3b] - [01:04] - [01:17------------------------| - [x4]
- ----------------------------13p12----13p12--------|
- -------13----15p13----------------------------12--|
- ----14----14-------14----13-------13-------13-----|
- -15-------------------14--------------------------|
- --------------------------------------------------|
- --------------------------------------------------|

[Riff 4, Guitar 1 & 2] - [01:17] - [01:30------------------------| - [x2]
- -------------------------------------------------------------------|
- -------------------------------------------------------------------|
- -----------9---------7-------------------------7~------------------|
- -------7-----------------9-------------9---10--------10--7~--------|
- -8~------------7~------------10--0~--------------------------------|
- -------------------------------------------------------------------|
-
- ------------------------------------------------------------------|
- ------------------------------------------------------------------|
- ------------------------------------------------------------------|
- -3~------------2~----------------7~------------5~-----------------|
- -3~------------2~----------------7~------------5~-----------------|
- -1~------------0~----------------5~------------3~-----------------|


- ------------------------------------------------------------------|
- ------------------------------------------------------------------|
- -----------9---------7--------------------------------------------|
- -------7-----------------9-------------9---10--------9---10--7----|
- -8~------------10~-----------10--0~------------0~-----------------|
- ------------------------------------------------------------------|
-
- ------------------------------------------------------------------|
- ------------------------------------------------------------------|
- ------------------------------------------------------------------|
- -3~------------5~----------------7~------------7~-----------------|
- -3~------------5~----------------7~------------7~-----------------|
- -1~------------3~----------------5~------------5~-----------------|

[Riff 1] - [01:30] - [02:08] - [x6]
[Riff 2] - [01:42] - [01:55] - [x2]
[Riff 3a, Guitar 1 & 2] - [02:08] - [02:21]
[Riff 3b] - [02:08] - [02:21] - [x4]

[Riff 5, Guitar 1 & 2] - [02:21] - [02:47]
- ------------------------------------------------------------------|
- ------------------------------------------------------------------|
- -----------9---------7-------------------------7~-----------------|
- -------7-----------------9-------------9---10--------10--7~-------|
- -8~------------7~------------10--0~-------------------------------|
- ------------------------------------------------------------------|
-
- ------------------------------------------------------------------|
- ------------------------------------------------------------------|
- ------------------------------------------------------------------|
- -3~------------2~----------------7~------------5~-----------------|
- -3~------------2~----------------7~------------5~-----------------|
- -1~------------0~----------------5~------------3~-----------------|


- ------------------------------------------------------------------|
- ------------------------------------------------------------------|
- -----------9---------7--------------------------------------------|
- -------7-----------------9-------------9---10--------9---10--7----|
- -8~------------10~-----------10--0~------------0~-----------------|
- ------------------------------------------------------------------|
-
- ------------------------------------------------------------------|
- ------------------------------------------------------------------|
- ------------------------------------------------------------------|
- -3~------------5~----------------7~------------7~-----------------|
- -3~------------5~----------------7~------------7~-----------------|
- -1~------------3~----------------5~------------5~-----------------|


- ------------------------------------------------------------------|
- ------------------------------------------------------------------|
- -----------9---------7-------------------------7~-----------------|
- -------7-----------------9-------------9---10--------10--7~-------|
- -8~------------7~------------10--0~-------------------------------|
- ------------------------------------------------------------------|
-
- ------------------------------------------------------------------|
- ------------------------------------------------------------------|
- ------------------------------------------------------------------|
- -3~------------2~----------------7~------------5~-----------------|
- -3~------------2~----------------7~------------5~-----------------|
- -1~------------0~----------------5~------------3~-----------------|


- ------------------------------------------------------------------|
- ------------------------------------------------------------------|
- -----------9---------7----------------------------------/9--------|
- -------7-----------------9-------------9---10--------9-----9------|
- -8~------------10~-----------10--0~------------0~------------7----|
- ---------------------------------------------------------------0--|
PM                                                               .
- ------------------------------------------------------------------|
- ------------------------------------------------------------------|
- --------------------------------------------------------/9-----14-|
- -3~------------5~----------------7~------------7~----------9---x--|
- -3~------------5~----------------7~------------7~------------7-12-|
- -1~------------3~----------------5~------------5~-----------------|


[Riff 6a] - [02:47] - [03:12--------------------------------------------| - [x4]
- ----------------------------------------------------------------------|
- ----------------------------------------------------------------------|
- -13\---9-----9-----7-----------13-13\---9-----9-----13----------------|
- -x-----9-----10----7-----6-----x--x-----10----9-----x-----12-10-10-9--|
- -11\---7-----7-----5-----x-----11-11\---7-----7-----11----12-10-10-9--|
- -----0-7---0-----0-----0-4-0-0--------0-----0-7---00----0010-8--8--7--|
PM     .     .     .     .   ...        .     .     ..    ..

[Riff 6b] - [02:58] - [03:12]                         T        T        T
- -------------------------------------------------------------------------------|
- ----------------------------------------------------12p5p3h5-10p5p3h5-12p5p3h5-|
- -------------------------------------------------------------------------------|
- -------------------------------------------------------------------------------|
- -------------------------------------------------------------------------------|
- -------------------------------------------------------------------------------|
   T    T               T        T        T    T               T        T
- ------13\12/13\12----------------------------13\12/13\12-----------------------|
- -12p5------------h3h5-12p5p3h5-12p5p3h5-12p5------------h3h5-12p5p3h5-12p5p3h5-|
- -------------------------------------------------------------------------------|
- -------------------------------------------------------------------------------|
- -------------------------------------------------------------------------------|
- -------------------------------------------------------------------------------|
   T    T               T        T        T    T               T        T
- ------13\12/13\12----------------------------13\12/13\12-----------------------|
- -12p5------------h3h5-12p5p3h5-12p5p3h5-12p5------------h3h5-12p5p3h5-12p5p3h5-|
- -------------------------------------------------------------------------------|
- -------------------------------------------------------------------------------|
- -------------------------------------------------------------------------------|
- -------------------------------------------------------------------------------|
   T    T               T        T        T    T               T        T
- ------13\12/13\12----------------------------13\12/13\12-----------------------|
- -12p5------------h3h5-12p5p3h5-12p5p3h5-12p5------------h3h5-12p5p3h5-12p5p3h5-|
- -------------------------------------------------------------------------------|
- -------------------------------------------------------------------------------|
- -------------------------------------------------------------------------------|
- -------------------------------------------------------------------------------|
   T    T               T        T        T    T               T        T
- ------13\12/13\12----------------------------13\12/13\12-----------------------|
- -12p5------------h3h5-12p5p3h5-12p5p3h5-12p5------------h3h5-12p5p3h5-12p5p3h5-|
- -------------------------------------------------------------------------------|
- -------------------------------------------------------------------------------|
- -------------------------------------------------------------------------------|
- -------------------------------------------------------------------------------|

[Riff 7] - [03:12] - [03:38]
   T      T      T      T      T      T      T      T      T      T      T
- ----------------------------------------------------------------------------|
- -10p6h9-10p9p6-10p6h9-10p9p6-10p6h9-10p9p6-10p6h9-10p9p6-10p6h9-10p9p6-10p6-|
- ----------------------------------------------------------------------------|
- ----------------------------------------------------------------------------|
- ----------------------------------------------------------------------------|
- ----------------------------------------------------------------------------|

   T     T     T     T     T     T     T     T     T     T     T
- -----------------------------------------------------------------|
- -9p5h6-9p6p5-9p5h6-9p6p5-9p5h6-9p6p5-9p5h6-9p6p5-9p5h6-9p6p5-9p5-|
- -----------------------------------------------------------------|
- -----------------------------------------------------------------|
- -----------------------------------------------------------------|
- -----------------------------------------------------------------|

   T      T      T      T      T      T      T      T      T      T      T
- ----------------------------------------------------------------------------|
- -10p6h9-10p9p6-10p6h9-10p9p6-10p6h9-10p9p6-10p6h9-10p9p6-10p6h9-10p9p6-10p6-|
- ----------------------------------------------------------------------------|
- ----------------------------------------------------------------------------|
- ----------------------------------------------------------------------------|
- ----------------------------------------------------------------------------|
   T        T        T        T        T        T        T        T        T        T        T
- -------------------------------------------------------------------------------------------------|
- -13p10h12-13p12p10-13p10h12-13p12p10-13p10h12-13p12p10-13p10h12-13p12p10-13p10h12-13p12p10-13p10-|
- -------------------------------------------------------------------------------------------------|
- -------------------------------------(Harmony Part With Above)-----------------------------------|
- -------------------------------------------------------------------------------------------------|
- -------------------------------------------------------------------------------------------------|


   T              T              T
- -------------------------------------------------------------|
- -------------------------------15p9p8p7h8h9-10h12p10---------|
- -13p10p9p8h9h10-16p10p9p8h9h10-----------------------12p10p9-|
- -------------------------------------------------------------|
- -------------------------------------------------------------|
- -------------------------------------------------------------|

- -----------------------------------------------8h10h11-12v-----12b--12v-16v-------------16v-------------|
- ------------------------------------9-10h11h12----------------------------------------------------------|
- -10p9---------------9-12p10p9-10h12---------------------------------------------------------------------|
- ------12p10p9-10h12-------------------------------------------------------------------------------------|
- --------------------------------------------------------------------------------------------------------|
- --------------------------------------------------------------------------------------------------------|

[Riff 6a] - [03:25] - [03:38] - [x2]

[Riff 8] - [03:25] - [03:38] - [x4]
   T        T        T        T        T        T        T        T
- -------------------------------------------------------------------------|
- -12p5p3h5-12p5p3h5-12p5p3h5-12p5p3h5-12p5p3h5-12p5p3h5-12p5p3h5-12p5p3h5-|
- -------------------------------------------------------------------------|
- -------------------------------------------------------------------------|
- -------------------------------------------------------------------------|
- -------------------------------------------------------------------------|

[Riff 4, Guitar 1 & 2] - [03:38] - [04:04] - [x2]

[Riff 9] - [04:04] - [04:16]
- ---------------------------------------------------------------------|
- ---------------------------------------------------------------------|
- -9\----9-----9-----7-----------13-13\---9-----9-----13---------------|
- -9\----9-----10----7-----6-----x--x-----10----9-----x-----12-10-10-9-|
- -7\----7-----7-----5-----x-----11-11\---7-----7-----11----12-10-10-9-|
- -----0-7---0-----0-----0-4-0-0--------0-----0-7---00----0010-8--8--7-|
PM     .     .     .     .   ...        .     .     ..    ..

- ---------------------------------------------------------------------|
- ---------------------------------------------------------------------|
- -9\----9-----9-----7-----------13-13\---9-----9-----9----------------|
- -9\----9-----10----7-----6-----x--x-----10----9-----9-----12-10-10-9-|
- -7\----7-----7-----5-----x-----11-11\---7-----7-----7-----12-10-10-9-|
- -----0-7---0-----0-----0-4-0-0--------0-----0-7---00----0010-8--8--7-|
PM     .     .     .     .   ...        .     .     ..    ..

[Riff 10a] - [04:16] - [04:45-------------------------------------------| - [x8]
- ----------------------------------------------------------------------|
- ----------------------------------------------------------------------|
- -9\----9-----9-----7--------------------9-----9-----9-----------------|
- -9\----9-----10----7-----6-----6-6\-----10----9-----9-----12-10-10-9--|
- -7\----7-----7-----5-----x-----x-x------7-----7-----7-----12-10-10-9--|
- -----0-7---0-----0-----0-4-0-0-4-4\---0-----0-7---00----0010-8--8--7--|
PM     .     .     .     .   ...        .     .     ..    ..

last time plat like this :

- ---------------------------------------------------------------------|
- ---------------------------------------------------------------------|
- -9\----9-----9-----7--------------------9-----9----------------------|
- -9\----9-----10----7-----6-----6-6\-----10----9----------------------|
- -7\----7-----7-----5-----x-----x-x------7-----7----------------------|
- -----0-7---0-----0-----0-4-0-0-4-4\---0-----0-7----------------------|
PM     .     .     .     .   ...        .     .

[Riff 10b] - [04:16] - [04:45] - [x4]
   T      T      T      T      T      T      T      T      T      T      T
- ----------------------------------------------------------------------------|
- -10p6h9-10p9p6-10p6h9-10p9p6-10p6h9-10p9p6-10p6h9-10p9p6-10p6h9-10p9p6-10p6-|
- ----------------------------------------------------------------------------|
- ----------------------------------------------------------------------------|
- ----------------------------------------------------------------------------|
- ----------------------------------------------------------------------------|

   T     T     T     T     T     T     T     T     T     T     T
- -----------------------------------------------------------------|
- -9p5h6-9p6p5-9p5h6-9p6p5-9p5h6-9p6p5-9p5h6-9p6p5-9p5h6-9p6p5-9p5-|
- -----------------------------------------------------------------|
- -----------------------------------------------------------------|
- -----------------------------------------------------------------|
- -----------------------------------------------------------------|

[Riff 10c] - [04:29] - [04:45] - [x2]
   T        T        T        T        T        T        T        T        T        T        T
- -------------------------------------------------------------------------------------------------|
- -13p10h12-13p12p10-13p10h12-13p12p10-13p10h12-13p12p10-13p10h12-13p12p10-13p10h12-13p12p10-13p10-|
- -------------------------------------------------------------------------------------------------|
- -------------------------------------------------------------------------------------------------|
- -------------------------------------------------------------------------------------------------|
- -------------------------------------------------------------------------------------------------|

   T       T       T       T       T       T       T       T       T       T       T
- --------------------------------------------------------------------------------------|
- -12p9h10-12p10p9-12p9h10-12p10p9-12p9h10-12p10p9-12p9h10-12p10p9-12p9h10-12p10p9-12p9-|
- --------------------------------------------------------------------------------------|
- --------------------------------------------------------------------------------------|
- --------------------------------------------------------------------------------------|
- --------------------------------------------------------------------------------------|

[Symbols]

PM... Palm Mute notes with (...) under them
AP... Alternate Pick notes with (...) under them
h     Hammer On
p     Pull Off
[ ]   Harmonic
/     Slide Up
\     Slide Down
x     Dead Note
b     Bend
p     Pre-Bend
r     Release Bend
(x )  Play Notes x amount of times
~     Let Ring
/ 3 \ Notes are triplets (3 notes in the space of two)
w\    Whammy Bar Down
w/    Whammy Bar Up
T     Right Hand Tap

:)
Добавлено: 07.09.2015
Другие материалы по этой песне:

Страница создана 07.09.2015
http://primanota.ru/soilwork/epitome-chords.htm
Привет, Гость.
Предлагаем пройти революционный курс по гитаре.
Подарок от PrimaNota.Ru, забирай!