PrimaNota.ru - самый крупный в мире бесплатный архив песенных текстов, аккордов, табулатур и нот


Soilwork - One With The Flies - текст песни, бас-таба, видео

Регистрация Запомнить меня
Войти через:  Facebook Google Twitter Vk Yandex Mail.ru

Soilwork - One With The Flies - текст песни, бас-таба, видео

Печатать
Просмотров: 128
Soilwork
One With The Flies
BEAD

Intro:
|------------|------------|------------|--------------|--------------|
|------------|------------|------------|---------3201-|--------------|
|------------|------------|-------32---|--------------|--------------|
|-0~~-00-r-0-|-2-02-02032-|-2-0232—-20-|-20232-2------|-20232-3-2020-|

|------------|--------------|-------------------|-------------------------|
|------------|--------------|-------------------|-------------------------|
|-------32---|--------------|-------------------|-------------------------|
|-2-0232—-20-|-20232-2-3201-|-32-0002-0002-0002-|-0002-0002-0002-00-32-20-|

Verse 1:
|----------|----------|----------|----------|
|----------|----------|----------|----------|
|----------|----------|----------|----------|
|-33333333-|-33333333-|-00000000-|-00000000-|

|----------|----------|----------|----------|
|----------|----------|----------|----------|
|-33333333-|-33333333-|----------|----------|
|----------|----------|-00000000-|-00000000-|

|------------|------------|--------------|--------------|
|------------|------------|---------3201-|--------------|
|------------|-------32---|--------------|--------------|
|-2-02-02032-|-2-0232—-20-|-20232-2------|-20232-3-2020-|

|------------|--------------|-------------------|-------------------------|
|------------|--------------|-------------------|-------------------------|
|-------32---|--------------|-------------------|-------------------------|
|-2-0232—-20-|-20232-2-3201-|-32-0002-0002-0002-|-0002-0002-0002-00-32-20-|

|----------|----------|----------|----------|
|----------|----------|----------|----------|
|----------|----------|----------|----------|
|-33333333-|-33333333-|-00000000-|-00000000-|

|----------|----------|----------|----------|
|----------|----------|----------|----------|
|-33333333-|-33333333-|----------|----------|
|----------|----------|-00000000-|-00000000-|

Chorus:
|----------------|---|---------------------|-------------------|
|*--------------*|---|*--------------------|------------------*|
|*-2~2/7~-------*|---|*-----3---/3---------|------1-----------*|
|---------2~2/5~-|-r-|-2-033--0---0-000022-|-2-033--02-2h4-220-|

Pre-Verse:
|------------------|
|------------------|
|------------------|
|-r-0~~~--2-0-0000-|

Verse 2:

|----------|----------|----------|----------|
|----------|----------|----------|----------|
|----------|----------|----------|----------|
|-33333333-|-33333333-|-00000000-|-00000000-|

|----------|----------|----------|----------|
|----------|----------|----------|----------|
|-33333333-|-33333333-|----------|----------|
|----------|----------|-00000000-|-00000000-|

Chorus:

Bridge:
|---|-----------|--------------|-----------|--------------|
|---|-----------|--------------|-----------|--------------|
|---|-----------|-----------3^-|-----------|--------------|
|-r-|-000000-00-|-000000-00----|-000000-00-|-2-2-0-0-0000-|

Solo:
|------------|------------|--------------|--------------|
|*-----------|------------|--------------|-------------*|
|*-----------|-------32---|--------------|-------------*|
|-2-02-02032-|-2-0232—-20-|-20232-2-3201-|-20232-3-2020-|

Interlude:
|---------------|----------|
|---------------|----------|
|----3^---------|----------|
|-r-0--00000~~~-|-2-0-0000-|

Outro:
|---------------------|-------------------|
|*--------------------|------------------*|
|*-----3---/3---------|------1-----------*|
|-2-033--0---0-000022-|-2-033--02-2h4-220-|X3

|--------------------|
|--------------------|
|--------------------|
|-00-3p2-545454-0~~~~|
Добавлено: 20.04.2012
Другие материалы по этой песне:

Страница создана 20.04.2012
http://primanota.ru/soilwork/one-with-the-flies-chords.htm
Привет, Гость.
Предлагаем пройти революционный курс по гитаре.
Подарок от PrimaNota.Ru, забирай!