PrimaNota.ru - самый крупный в мире бесплатный архив песенных текстов, аккордов, табулатур и нот


Sod - March Of The Sod - таба, бас-таба, видео

Регистрация Запомнить меня
Войти через:  Facebook Google Twitter Vk Yandex Mail.ru

Sod - March Of The Sod - таба, бас-таба, видео

Печатать
Просмотров: 278
Title: March Of SOD
Artist: S.O.D.
Album: Speak English Or Die

Instrument: 6 String Guitar

Tabbed by: Frank Meyers (monkeygrip@eudoramail.com)

Tuning: Dropped D (D A D G B E)RIFF A (main riff)

E|--------------------------||
B|--------------------------||
G|--------------------------||
D|---1--0-------3--2--------||
A|---1--0-------3--2--------||
D|---1--0--0-0--3--2--0-0---||


RIFF B

E|---------------------------------||
B|---------------------------------||
G|---------------------------------||
D|---2---3---6---5-------8-7-6-5---||
A|---2---3---6---5-------8-7-6-5---||
D|---2---3---6---5--0-0--8-7-6-5---||


RIFF C

E|---------------------------------------||
B|---------------------------------------||
G|---------------------------------------||
D|--8-7-6-5--7-6-5-4--6-5-4-3--5-4-3-2---||
A|--8-7-6-5--7-6-5-4--6-5-4-3--5-4-3-2---||
D|--8-7-6-5--7-6-5-4--6-5-4-3--5-4-3-2---||
Добавлено: 24.02.2012
Другие материалы по этой песне:

Страница создана 24.02.2012
http://primanota.ru/sod/march-of-the-sod-chords.htm
Привет, Гость.
Предлагаем пройти революционный курс по гитаре.
Подарок от PrimaNota.Ru, забирай!