PrimaNota.ru - самый крупный в мире бесплатный архив песенных текстов, аккордов, табулатур и нот


Social Distortion - Take Care Of Yourself - таба, видео

Регистрация Запомнить меня
Войти через:  Facebook Google Twitter Vk Yandex Mail.ru

Social Distortion - Take Care Of Yourself - таба, видео

Печатать
Просмотров: 91
Take Care Of Yourself
Social Distortion

Intro:

e---|-0--4--0-----------------|
B---|-0--0--0-------2---------|
G---|-1--1--1-----2--------2--|
D---|-2--2--2---0--------2----|  x3
A---|-2--2--2----------0------|
E---|-0--0--0-----------------|

e---|-0--4--0----------|
B---|-0--0--0---3------|
G---|-1--1--1---2---2--|
D---|-2--2--2---0---2--|
A---|-2--2--2-------0--|
E---|-0--0--0----------|

Intro Solo:


e---|------------------------------------------------------------|
B---|-7/9-9-9--7-5-5/7-7-7-7-5----7/9-9-7-9-10-10-10-10-9-7------|
G---|--------------------------6---------------------------------|
D---|------------------------------------------------------------|
A---|------------------------------------------------------------|
E---|------------------------------------------------------------|

e---|---------------------------------|
B---|-7/9-9-9--7-5-5/7-7-7-7-5--5-----|
G---|--------------------------6------|
D---|---------------------------------|
A---|---------------------------------|
E---|---------------------------------|

Verse:

e---|-0------------------|
B---|-0------2------2----|
G---|-1------2------2----|
D---|-2----0-------------|  x3
A---|-2-----------0------|
E---|-0------------------|

e---|-0-----------|
B---|-0----3------|
G---|-1----2---2--|
D---|-2----0---2--|
A---|-2--------0--|
E---|-0-----------|

e---|-0-----------------|
B---|-0-----2------2----|
G---|-1-----2------2----|
D---|-2----0------------|  x3
A---|-2-----------0-----|
E---|-0-----------------|

e---|-0-----------|
B---|-0----3------|
G---|-1----2---2--|
D---|-2----0---2--|
A---|-2--------0--|
E---|-0-----------|

Chorus:

e---|-0-----------|
B---|-0----3------|
G---|-1----2---2--|  x4
D---|-2----0---2--|
A---|-2--------0--|
E---|-0-----------|

Verse again

Then Chorus part x5 instead of 4

Bridge

D                                            E                 A   D
And there's nothin' I wouldn't do for you
                                               E         A    D
To try to keep you here by my side
                                                         E                        A   D
If there's the slightest chance I could change for you
                                                   F#m    A    B
Then I'll be here still for the long ride


Chorus part x11

Outro Solo is as follows:

e---|---------------------------------------------------------------|
B---|-7/9-9-9--7-5-5/7-7-7-7-5----7/9-9-9-7-9-10-10-10-10-9-7-------|
G---|--------------------------6------------------------------------|
D---|---------------------------------------------------------------|
A---|---------------------------------------------------------------|
E---|-------------------------------------------------------- ------|

e---|------------------------------------------------------------|
B---|-7/9-9-9--7-5-5/7-7-7-7-5--5----7--5--7--9--7--5------5-----|
G---|--------------------------6---------------------------------|
D---|------------------------------------------------------------|
A---|------------------------------------------------------------|
E---|------------------------------------------------------------|
Добавлено: 24.11.2013
Другие материалы по этой песне:
  • Аккорды и текст

Страница создана 08.10.2013
http://primanota.ru/social-distortion/take-care-of-yourself-chords.htm
Привет, Гость.
Предлагаем пройти революционный курс по гитаре.
Подарок от PrimaNota.Ru, забирай!