PrimaNota.ru - самый крупный в мире бесплатный архив песенных текстов, аккордов, табулатур и нот


Social Distortion - Bakersfield - текст песни, таба, видео

Регистрация Запомнить меня
Войти через:  Facebook Google Twitter Vk Yandex Mail.ru

Social Distortion - Bakersfield - текст песни, таба, видео

Печатать
Просмотров: 115
-------------------------------------------------------------------------------
			     Bakersfield - Social Distortion
-------------------------------------------------------------------------------
Tabbed by: Dave
Email: Cessdave@hotmail.com

This is the first online tab I've seen to a great Social D song that is has been featured live on
their most recent tour.  You can check out the song online on lots of different websites.

Great SxDx song!

Tuning: EADGBE (CAPO ON 1st Fret)  They usually tune down a 1/2 step and capo the 2nd 
 Either works.   Most of their stuff uses a Capo and instead of tuning up, I think he gets 
the volute on the early 70's Les Pauls by using the Capo.  Just a thought.

I'll add the solo later.

This should get you pretty close.

frets numbered relative to CAPO

INTRO
e|---0-----------------3-3-------------------2-2--------------------------|
B|---3/5--3------------3-3---------3-----3---3-3--------------------------|
G|-----------2/4-2p0---0-0-----2/4---2/4-----2-2--------------------------|
D|---------------------0-0-------------------0-0--------------------------|
A|---------------------X-X------------------------------------------------|
E|---------------------3-3------------------------------------------------|

e|---0-----------------3-3-------------------2-2-------------------3-3------|
B|---3/5--3------------3-3---------3-----3---3-3-------------------3-3------|
G|-----------2/4 2p0---0-0-----2/4---2/4-----2-2-------------------0-0------|
D|---------------------0-0-------------------0-0-----0h2-0------0--0-0------|
A|---------------------X-X----------------------------------0h2----X-X------|
E|---------------------3-3-----------------------------------------3-3------|

e|------------2-2------0-----------------2-2--------------------2-2-------|
B|------------3-3------3/5--3------------2-2--------0-------0---3-3-------|
G|------------2-2--------------2/4-2p0---0-0----2/4-----2/4-----2-2-------|
D|-----0------0-0------------------------0-0--------------------0-0-------|
A|-0h2---2p0-----------------------------X-X------------------------------|
E|---------------------------------------3-3------------------------------|

e|--0-----------------3-3-------------------------------------------------|
B|--3/5--3------------3-3-------------------------------------------------|
G|----------2/4-2p0---0-0-------------------------------------------------|
D|--------------------0-0-------------------------------------------------|
A|--------------------X-X-------------------------------------------------|
E|--------------------3-3-------------------------------------------------|

VERSE
e|--3--------3-2-2---0--------------------3-3----|
B|--3--------3-3-3---3/5--3---------------3-3----|
G|--0--------0-2-2-----------2/4-2p0------0-0----|
D|--0--------0-0-0------------------------0-0----|
A|--X--------X----------------------------X-X----|
E|--3--------3----------------------------3-3----|


VERSE fill
e|---X/7-7-7-7-5-7-7--7---------------------------------------------------|
B|---X/8-8-8-8-7-8-8--8---------------------------------------------------|
G|--------------------0---------------------------------------------------|
D|--------------------0---------------------------------------------------|
A|------------------------------------------------------------------------|
E|------------------------------------------------------------------------|

CHORUS (listen to song for pattern)
e|----3---2-------3--2-------------------------------------------------------|
B|----3---3---5---3--3-------------------------------------------------------|
G|----0---2---5---0--2-------------------------------------------------------|
D|----0---0---5---0--0-------------------------------------------------------|
A|----X-------3---X----------------------------------------------------------|
E|----3-----------3----------------------------------------------------------|




| /  slide up
| \  slide down
| h  hammer-on
| p  pull-off
| ~  vibrato
| +  harmonic
| x  Mute note
===============================================================================
Добавлено: 24.10.2013
Другие материалы по этой песне:
  • Аккорды и текст

Страница создана 19.10.2013
http://primanota.ru/social-distortion/bakersfield-chords.htm
Привет, Гость.
Предлагаем пройти революционный курс по гитаре.
Подарок от PrimaNota.Ru, забирай!