PrimaNota.ru - самый крупный в мире бесплатный архив песенных текстов, аккордов, табулатур и нот


Smiths - Stop Me If Youve Heard This One Before - аккорды и текст, видео

Регистрация Запомнить меня
Войти через:  Facebook Google Twitter Vk Yandex Mail.ru

Smiths - Stop Me If Youve Heard This One Before - аккорды и текст, видео

Печатать
Просмотров: 100
Stop Me If Youve Heard This One Before
Smiths
"Stop Me If You've Heard This One Before"
By The Smiths 
>From the album Strageways, Here We Come

Tabbed by Jeff Lawson

Capo on 3rd Fret or tune 3 semitones up

Intro/Outro

   C     Gm   Eb     F     A     G
-0-0-0--0-0--0-0-0--0-0--2-2-2--0-0- |
-0-0-0--0-0--1-1-1--3-3--2-2-2--0-0- |
-2-2-2--0-0--0-0-0--0-0--3-3-3--1-1- | Repeat
-2-2-2--2-2--2-2-2--4-4--4-4-4--2-2- |
-0-0-0--2-2--3-3-3--5-5--4-4-4--2-2- |
-x-x-x--0-0--x-x-x--x-x--2-2-2--0-0- |

Verse

   C        Gm       Eb        F
-0-0-0-0--0-0-0-0--0-0-0-0--0-0-0-0- |
-0-0-0-0--0-0-3-0--1-1-1-1--3-3-3-3- |
-2-2-2-2--0-0-0-0--0-0-0-0--0-0-0-0- | Repeat
-2-2-2-2--2-2-2-2--2-2-2-2--4-4-4-4- | 
-0-0-0-0--2-2-2-2--3-3-3-3--5-5-5-5- |    
-x-x-x-x--0-0-0-0--x-x-x-x--x-x-x-x- |

Chorus

-0-------0-----0---- |
-0-------1--1-3--3-- |
-2-------2--------2- | Repeat
-5-------2---------- |
-3-------0---------- |
-1-------x---------- |

Fill A

-0-0-0-0-0-0-0-0-0-0-0-0-0-0- |
-0-0-0-0-0-0-0-0-0-0-0-0-0-0- |
-2/4-4-4-4/2-2-2-2/4-4-4-4/2- | Back to Verse
----------------------------- |
----------------------------- |
----------------------------- |


This song got me hooked.  Listen carefully to get
rhythm right. 

Cheers,

Jeff L.

     
Добавлено: 26.09.2013
Вам также может быть интересно:
Другие материалы по этой песне:
  • Аккорды и текст

Страница создана 26.09.2013
http://primanota.ru/smiths/stop-me-if-youve-heard-this-one-before-chords.htm
Привет, Гость.
Предлагаем пройти революционный курс по гитаре.
Подарок от PrimaNota.Ru, забирай!