PrimaNota.ru - самый крупный в мире бесплатный архив песенных текстов, аккордов, табулатур и нот


Smiths - The Boy With The Thorn In His Side - аккорды и текст, таба, видео

Регистрация Запомнить меня
Войти через:  Facebook Google Twitter Vk Yandex Mail.ru

Smiths - The Boy With The Thorn In His Side - аккорды и текст, таба, видео

Печатать
Просмотров: 210
Уроки эстрадного вокала в Санкт-Петербурге
Авторы музыки: Johnny Marr
Авторы текста: Morrissey
The Boy With The Thorn In His Side
Smiths
-------------------------------------------------------------------------------
                THE BOY WITH THE THORN IN HIS SIDE - The Smiths
-------------------------------------------------------------------------------
Tabbed by: knighty123
Email: knighty_dan@hotmail.co.uk

The intro I tabbed out isn't completely accurate as to how many strums of each chord to
do, so just try it out and do whatever sounds good to yourself.

In the verse, I'll put a '*' next to the Am chords, which you play briefly for a strum
or two.

Intro: (C-D x3)

e------0-00-00----0-0-00-----------------0-00-00--00-0---2--23-20--2--|
B------1-11-11----3-3-33-----------------1-11-11--00-0---3--33-33--3--|
G------0-00-00----0-0-00----3-33-33--33-3----------------|
E------3-33-33----5-5-55-----------------3-33-33--33-3----------------|

                       this is where lyrics start
                       the boy with the....
e------7-77-77-8-8-----5-55-5-55-55-----|
B------8-88-88-8-8-----7-77-7-77-77-----|
G------7-77-77-7-7-----7-77-7-77-77-----|
D------0-00-00-0-0-----0-00-0-00-00-----|
A---------------------------------------|
E---------------------------------------|

(as above)                    Am
The boy with the thorn in his side
           C      D
Behind the hatred there lies
G            Am*  D
A murderous desire
  Am       C   D
Foooor loooove

D             G        Am*  D
How can they look into my eyes
                       Am        C   D
And still they don't believe me
             G           Am*     D
How can they hear me say those words
                 Am         C  D
Still they don't believe me

                  G         Am*    D
And if they don't believe me now
          Am              C  D
Will they ever believe me?
                  G         Am*    D
And if they don't believe me now
          Am               C
Will they ever believe me?


The intro is then played again and the above chords are repeated for the rest of the song.
Добавлено: 19.11.2013
Другие материалы по этой песне:

Страница создана 23.05.2012
http://primanota.ru/smiths/the-boy-with-the-thorn-in-his-side-chords.htm
Привет, Гость.
Предлагаем пройти революционный курс по гитаре.
Подарок от PrimaNota.Ru, забирай!