PrimaNota.ru - самый крупный в мире бесплатный архив песенных текстов, аккордов, табулатур и нот


Smashing Pumpkins - Snap If I Could - таба, видео

Регистрация Запомнить меня
Войти через:  Facebook Google Twitter Vk Yandex Mail.ru

Smashing Pumpkins - Snap If I Could - таба, видео

Печатать
Просмотров: 49
                              Smashing Pumpkins

                              "Snap (If I could)"
                              Transcribed by,
                              Brian Ebbitt

e-----------------------------------------------------------
b-----------0-------------------0-----------------0---------
g------0------0-------------0-----0-----------0-----0-------
d----2---2------2---------4---4-----4-------2---2-----2-----
a--3--------------3-----5-------------5---3-------------3---
E-----------------------------------------------------------
                         (fifth time)                       
e--------------------|   |--------------------------------
b----------3---------|   |------------------------0-------
g------0-----0-------|   |------0---0---------0-----0-----
d----4---4-----4-----|   |----4-------4-----2---2-----2---
a--5-------------5---|   |--5-------------3-------------3-
E--------------------|x4 |--------------------------------

e------------------
b----------0-------
g-----0------0-----
d---4---4------4---
a-5--------------5-
E------------------

I'd break...

(Chorus)
I wouldn't give....  b-5/7---
                     b-5/7---
                     b-5/7---
                     b-5/7--- 

(Verse)
You think you...

(Chorus)

Key:
/= slide     
Добавлено: 04.08.2013
Другие материалы по этой песне:

Страница создана 11.05.2012
http://primanota.ru/smashing-pumpkins/snap-if-i-could-chords.htm
Привет, Гость.
Предлагаем пройти революционный курс по гитаре.
Подарок от PrimaNota.Ru, забирай!