PrimaNota.ru - самый крупный в мире бесплатный архив песенных текстов, аккордов, табулатур и нот


Smashing Pumpkins - Soma - аккорды и текст, таба, бас-таба, видео

Регистрация Запомнить меня
Войти через:  Facebook Google Twitter Vk Yandex Mail.ru

Smashing Pumpkins - Soma - аккорды и текст, таба, бас-таба, видео

Печатать
Просмотров: 220
Soma
Smashing Pumpkins
		   ___________________________________________________________________________
___________________________________________________________________________
__8__8__x_9_x_11fb____(11)____(11)__________________________14fb__14fb_____
_________________________________________________x__x______________________
_____________________________________________x_____________________________
___________________________________________________________________________

________________________________________________________________________
_____________________________________________________________________x_15fb_(15)
(14)___14_13_13hb__13__13_12__12_________1214fb__1412____1214fb_____________
____________________________14___ _14_1214_________14________________________
_______________________________14\12_14_12_14________________________________
____________________________________________________________________________

____________________________________________________________________________
_(15)hb_x_15(15)fb___x_15_15_12_15_12_15_12_14hb12_________________________
_____________________x_14(14)_____________________14_12_14_12_______________
_____________________________________________________________14_12__________
__________________________________________________________________14_12_10_12
____________________________________________________________________________


__________14___________________(14)_12_12_12_15__15___________________________
________x__0___________________________________12___________________________
________________14_(14)fb_14_14____________________16_14_1216_14_12__121412__
___________________________________________________________________14_______
10_12/14____________________________________________________________________
____________________________________________________________________________

_______________________________________________22hb__22hb_____________
______________________17fb_17fb_20fb_20fb_20fb________________________
_14_12 _______________________________________________________________
_______14_10/14_12_14_______________________________________________
____________________________________________________________________
____________________________________________________________________

                                             * use toggle switch for tone
__22______________________________________________________________________
_________________________________________________________________________
__________15_15_16_14_12___12_____________________*_7_7_7_7_7_7_7_7_5_7_5_
________________________14_________0__0____________________________________
_______________________________14_______12fb_______________________________
__________________________________________________________________________


_______________________________________________________
_______________________________________________________
____12fb___12fb___12fb___12fb___12fb______12fb________
______________________________________________________    ....into verse
________________________________________________________
_______________________________________________________



	I hope that helps you  keep pickin.......Great Cornholio



This borders on the Second Coming live....

"Soma"
by Smashing Pumpkins

verse
B          E             G
-------------------------------------
-----0---------0---------12---12-----
-----8---------9----------0----0-----
-----9-9-----9-9---9---12-----12-----
---9---9---7-----7-7-10----10-10-10--
-7-------7---------0-----------------   repeat, then strum chord pattern

after 2X, alternate high G w/ low G (355400)
during "chorus," end strum on F#/E (244300)
        ("Caught in a ruse of FOOLS..." line)

bridge
 B        E                F#/E
"One last kiss for me and..."
 B        E         G
"One last kiss good bye"


Heavy riff
A        C5    G    F
--------------------1-1-1--------------
-5-5----------------1-1-1--------------
-2-2-----5-5---0-0--2-2-2--------------
-2-2-----5-5---0-0--3-3-3--------------
-0-0-0-2-3-3-3-x-x--3-3-3--------------
---------------3-3--1-1-1-0-1p0--------

then back into the B E G progression

the Solo will follow soon......

                                        Raphrat




OK Here it is!

----
soma -- smashing pumpkins (billy corgan/james iha)
----
Co-transcribed by Chris Carman (cecarman@miavx1.acs.muohio.edu -- tab) and
Patrick A Nast (Patrick.Nast@informatik.tu-chemnitz.de -- chords & lyrics)

This is my way to play the chords:

       B     E     G    F#     A     C     F     D
E------0-----0-----3-----9-----5-----8-----1----10--
B------0-----0-----0-----9-----5-----8-----1----10--
G------8-----9-----0----11-----6-----9-----2----11--
D------9-----9-----0----11-----7----10-----3----12--
A------9-----7-----2-----9-----7----10-----3----12--
E-----(7)---(7)----3-----9-----5-----8-----1----19--

Hints: use chorus, reverb, echo, and Ebows to get it to sound like the record.
 Or just have fun with it.

intro -- this is very approximate - repeat 2x-|
                                              |
------0-----------0-----0-------7---7----7----|
------0-----------0-----0-------0---0--0--0---|
------8---8h9-----9---9-9-------0---0------0--|
----9-----9-----9---9---------0---0-----------|
--9-----9-----7-------------------------------|
----------------------------3-----------------|

------0------------0-----0------------------------------
------0------------0-----0------3----------3-----3------
------8----8h9-----9---9-9------4--------0-------0------
----9------9-----9---9----------5-5--4/5-----4/5---5----
--9------9-----7--------------5-------------------------
----------------------------3---------------------------
                                               band in
------0--------------7--------7---7----7-7------
------0---------------7-------------------------
------8----8h9-----9---9------------0-----------
----9------9-----9------------------------------
--9------9-----7------------5---5----5-----5----
--------------------------3---------------------

just repeat something similar to the above intro stuff with the rest of the
band until the vocals come in, then play the chords written above the lyrics.
with over 40 guitar tracks on this song alone, the best thing we can hope to do
is approximate it -- hell, on stage, the Pumpkins only have two guitarists.

lead w/full band:

--------------------------------------------------------------------------
----------------------0---0---0---0-----------------------0---0---0----9--
---8--------8/9--11\7---6---4---2-----8--------8/9--11--12--11-/14--\9----
-------9h11-9-----------------------------9h11-9--------------------------
--------------------------------------------------------------------------
--------------------------------------------------------------------------
                                                            into the vocals
------------------------------------------------------0----------
----------------------0---0---0---0--------------------0---------
---8--------8/9--11\7---6---4---2-----8--------8/9--11--/12------
-------9h11-9-----------------------------9h11-9-----------------
-----------------------------------------------------------------
-----------------------------------------------------------------

[for the vocals, play something similar to the intro w/lead part]

B        E       G
nothing left to say
B            E       G
and all i've left to do
B       E        G
is run away from you
               B  E
and she let me on down
     G               B   E
with secrets i can't keep

[play that lead part here for the next 4 lines]
G                   B    E
close your eyes and sleep
G                 B E
don't wait up for me
G                  B    E   G
hush now don't you speak to me

[crank up the mellotron here...]
B          E       G
wrapped my hurt in you
B           E               G
and took my shelter in that pain
B      E      G
the opiate of blame
               B     E          G
is your broken heart heart your heart

[lead w/Mike Mills on piano, playing the chords]
       B       E    G
so now i'm all by myself
B       E      G
as i've always felt
    B      E       G
and i'll betray my tears
      B   E      G              F#
to anyone caught in our ruse of fools

B                        F#
one last kiss for me yeah
B
one last kiss
     G
good night


[solo1] play E G A F# under solo1

Okay, the amazing thing about this solo -- and I shit you not -- is that not
only is it on an acoustic guitar (!) driven by an Ebow (!!), but there are
FOURTEEN studio tracks of it! (!!!)  G don't worry if this isn't exact. :)
                                bend up & down
---10---------10-----------------------------------------------------------
--------10h12-----10-/14\10--7--b7(8)b7b7(8)-------------------------------
----0----------------------------------------------------------------------
----------------------------------------------b4(5)b4b4(5)-/12--11h12p11---
---------------------------------------------------------------------------
---------------------------------------------------------------------------



              normal guitar, let open strings ring into power chords
----------------------------------------------------------------
-----------------------0----------------0-----------------------
-------------------9-----9---9-----9----------------------------
--/14--\9--7-----9---9-----9-----9---9--------------------------
---------------7---------------7--------------------------------
----------------------------------------------------------------

[Distortion! Power Chords! YES!!]

A   C   G                F              A   C  G
          didn't want to lose you once again
               F       A     C  G
didn't want to be your friend
            F               A  C  G
fulfilled a promise made of tin
                    F
and crawled back to you
    B       E    G
now i'm all by myself  (close your eyes and sleep)
B       E      G
as i've always felt    (don't wait up for me)
    B      E      G
and i'll betray myself (hush now don't you speak)
      B   E
to anyone lost
G
anyone but you


[solo2] B  E  G under solo2
[to be finished at a later date, when my physical therapy is done]


A  C  G            F              A  C  G
        so let the sadness come again
            F
on that you can
  E       G
depend on me
D         C             E
until the bitter bitter end
       G       D
of the world
                   C
when god sleeps in bliss
    B       E    G
and i'm all by myself
B       E      G
as i've always felt
    B      E    G
and i'll betray myself
      B  E G
to anyone.

[back to clean chords]
B       E       G
nah nah nah nah nah nah nah nah
B         E        G
yeah yeah yeah nah nah nah nah nah
B         E        G
yeah yeah yeah nah nah nah nah nah
B         E        G
yeah yeah yeah nah nah
B
hoh...

Sincerely Yours,
Adelande     
Добавлено: 25.09.2013
Другие материалы по этой песне:

Страница создана 04.03.2012
http://primanota.ru/smashing-pumpkins/soma-chords.htm
Привет, Гость.
Предлагаем пройти революционный курс по гитаре.
Подарок от PrimaNota.Ru, забирай!