PrimaNota.ru - самый крупный в мире бесплатный архив песенных текстов, аккордов, табулатур и нот


Smashing Pumpkins - Blank1 - таба, видео

Регистрация Запомнить меня
Войти через:  Facebook Google Twitter Vk Yandex Mail.ru

Smashing Pumpkins - Blank1 - таба, видео

Печатать
Просмотров: 194
Уроки эстрадного вокала в Санкт-Петербурге



BLANK - by Smashing Pumpkins
=====   from the Mellon Collie Demo tape

Tabbed by Yves Dehouck
(i simply changed a few things in Brian McCall's tabs - it sounds better this way)



Acoustic

Chorus

|------------------------------------------------------------------
|------------------------------------------0---------------0-------
|----------2-----------4-----4---------2-----2---2-----2-----2---2-
|-----0------0---0-------------------2---------2-----2---------2---
|---0----------0-----2-----2-----2-0-----0---------0-----0---------
|-2-----2----------4-----4-----4-----------------------------------

Verse

|---------------------------------------------------------
|-------------------------0-------------------------------
|-------------4-------2-----2---2-------------------------
|-----0---------2---2---------2---------------------------
|---0-------2-----0-----0---------------------------------
|-2-----2-4-----------------------------------------------



Добавлено: 02.11.2013
Другие материалы по этой песне:
  • Аккорды и текст

Страница создана 02.11.2013
http://primanota.ru/smashing-pumpkins/blank1-chords.htm
Привет, Гость.
Предлагаем пройти революционный курс по гитаре.
Подарок от PrimaNota.Ru, забирай!