PrimaNota.ru - самый крупный в мире бесплатный архив песенных текстов, аккордов, табулатур и нот


Smashing Pumpkins - Being Beige - аккорды и текст, таба, видео

Регистрация Запомнить меня
Войти через:  Facebook Google Twitter Vk Yandex Mail.ru

Smashing Pumpkins - Being Beige - аккорды и текст, таба, видео

Печатать
Просмотров: 74
Авторы музыки: Billy Corgan
Авторы текста: Billy Corgan
Being Beige
Smashing Pumpkins
-------------------------------------------------------------------------------
                            Being Beige - Smashing Pumpkins
-------------------------------------------------------------------------------
Tabbed by: Wyatt
Tuning: (Eb, Ab, Db, Gb, Bb, Eb)
Album: Monuments to an Elegy
Band Page: http://www.smashingpumpkinsnexus.com/


Lyrics are mostly correct, but corrections are always welcome.


Riff 1                                                             _
eb|-----------0--------0------------------0---------0----------|    |
Bb|--------0--------0----------0-------0---------0-------0-----|    |
Gb|-----2--------2----------2-------1---------1-------1--------|    |
Db|------------------------------------------------------------|    |
Ab|------------------------------------------------------------|    |
Eb|------------------------------------------------------------|    |
                                                                    |  x2
eb|-----------0--------0------------------0---------0----------|    |
Bb|--------0--------0----------0-------0---------0-------0-----|    |
Gb|-----2--------2----------2-------1---------1-------1--------|    |
Db|------------------------------------------------------------|    |
Ab|-------------------------------------------4----------------|    |
Eb|------------------------------------------------------------|   _|  

eb|-----------0--------0------------------0---------0----------|    
Bb|--------0--------0----------0-------0---------0-------0-----|    
Gb|-----2--------2----------2-------1---------1-------1--------|    
Db|------------------------------------------------------------|    
Ab|------------------------------------------------------------|    
Eb|------------------------------------------------------------| 

eb|---------2--------2--------0---|
Bb|-------0-------0---------------|
Gb|-------------------------------|
Db|-----4--------4----------4-----|
Ab|-------------------------------|
Eb|-------------------------------|



(Riff 1)
A5       E
I don't love you
A5          E
For what it's worth 
A5         E
So if you're leaving 
        B/F#
Can you hurt?


A5      E
Cherry blossom
A5        E
This is goodbye 
A5       E
Come here lately
          B/F#
And you'll fly


A5      
When they say
E
What it's worth
                       A5
The world tells your hurt
        E
And you know
        B/F#
Where to hide


A5            E 
The world's on fire so
A5            E 
The world's on fire so
A5            E 
The world's on fire so 
          B/F#
Have you heard


A5            
Lover let me please
E
Fall onto your knees
A5            E  
Lover let me please
      B/F#
Be the one


A5 
No more prayers to make
E
Flowers made to beg
A5                E
When you swore to wait
     B/F#
You left us



A5            E 
The world's on fire so
A5            E 
The world's on fire so
A5            E 
The world's on fire so 
        B/F#
Have you heard


(Riff 1)


A5      E
Yes I loved you
A5            E
As a matter of fact
A5            E
Your fires are wrapped up
           B/F#         
And that's that


A5  
Lover let me please
E
Fall onto your knees
A5            E  
You once made me smile
          B/F#
Then you strayed



A5            E 
The world's on fire so
A5            E 
The world's on fire so
A5            E 
The world's on fire so
         B/F# 
Have you heard?

A5            E
The world's on fire
A5            E
The world's on fire
A5            E
The world's on fire
          B/F# 
Have you heard


A5            
Lover can you breathe
E
To make for your release
A5          E
I'm no longer here
         B/F# 
By your side


          B/F# 
What's to hide?


A5            E
The world's on fire
A5            E
The world's on fire
              (Until I'm ready on Monday)
A5            E
The world's on fire
              (Until I'm ready on Tuesday)
A5            E
The world's on fire
              (Until I'm ready on Wednesday)
A5            E
The world's on fire 
              (Until I'm ready on Thursday)
A5            E
The world's on fire
              (Until I'm ready on Friday)
A5            E
The world's on fire
              (Until I'm ready on Saturday)
A5            E                 A5
The world's on fire
              (Until I'm ready on Sunday)
Добавлено: 12.08.2014
Другие материалы по этой песне:
  • Аккорды и текст

Страница создана 12.08.2014
http://primanota.ru/smashing-pumpkins/being-beige-chords.htm
Привет, Гость.
Предлагаем пройти революционный курс по гитаре.
Подарок от PrimaNota.Ru, забирай!