PrimaNota.ru - самый крупный в мире бесплатный архив песенных текстов, аккордов, табулатур и нот


Smash Mouth - Disconnect The Dots - аккорды и текст, таба, бас-таба, видео

Регистрация Запомнить меня
Войти через:  Facebook Google Twitter Vk Yandex Mail.ru

Smash Mouth - Disconnect The Dots - аккорды и текст, таба, бас-таба, видео

Печатать
Просмотров: 219
Уроки эстрадного вокала в Санкт-Петербурге
Disconnect The Dots
Smash Mouth



#song. You may only use this file for private study, scholarship, or research.#
#-----------------------------------------------------------------------------#


Date: Wed, 28 Jan 1998 20:07:29 -0500 (EST)
From: wbknox@unity.ncsu.edu
Subject: TAB: disconnect_the_dots.tab by Smash mouth

Song: Disconnect the Dots
Band: Smash mouth
Album: Fush Yu Mang (1997)
Written by Smash mouth
Transcribed by Luke Knox (lukeknox@iname.com) e-mail me 

This is a cool song off of Fush Yu. I'm pretty sure about these chords, 
but let me know if there's a better way to play this song.

Intro:
E----------------
B----------------
G--8s9s8s9~~~~---
D----------------  (then mess with a wah pedal. I don't own
A----------------   one myself so I don't really know what
E----------------   exactly should be done, but I think you
                    just play a palm mute.)

Then:
E-------------------------------------
B----------------------5-5-5-5-5-5-5--
G--9----------------------------------
D--9---------------7------------------
A--7---5-----------7------------------
E----------9---7---5------------------

Verse:
    A   F#m D   A   E
E---5---2---5---5---4---
B---5---2---7---5---5---
G---6---2---7---6---4---
D---7---4---7---7-------
A-------4---------------
E-------2---------------

Verse Riff:
E---------------------
B-----5--------5------
G-------4--------4----
D--7------7-6------6--
A---------------------
E---------------------

Chorus:
  F#m D   E   A   E   F#m D   E   A
E-2---5---4---5---4---2---5---4---5-------------------------
B-2---7---5---5---5---2---7---5---5------------5-5-5-5-5-5-5
G-2---7---4---6---4---2---7---4---6--9----------------------
D-4---7-------7-------4---7-------7--9-------7--------------
A-4-------------------4--------------7-5-----7--------------
E-2-------------------2------------------9-7-5-------------
                                     Eii     A    

Lyrics:
(Verse) Today you sat up half asleep and ...
(Chorus 1) Stay up man don't drown. It's ....
(Verse) Every day I see you sinking low. ....
(Chorus 2) Stay up man don't sink. ....
(Bridge) Thought you had it good, so secure so .....
(Repeat 1st chorus)

That's it   I hope you like what you see, and please e-mail me with any 
requests, comments, etc.

Luke


Добавлено: 12.10.2013
Другие материалы по этой песне:
  • Аккорды и текст

Страница создана 05.03.2012
http://primanota.ru/smash-mouth/disconnect-the-dots-chords.htm
Привет, Гость.
Предлагаем пройти революционный курс по гитаре.
Подарок от PrimaNota.Ru, забирай!