PrimaNota.ru - самый крупный в мире бесплатный архив песенных текстов, аккордов, табулатур и нот


Smash Mouth - All stars - текст песни, таба, видео

Регистрация Запомнить меня
Войти через:  Facebook Google Twitter Vk Yandex Mail.ru

Smash Mouth - All stars - текст песни, таба, видео

Печатать
Просмотров: 238


this is the first part

from: somebody once told me....
till: Sparpest tool in the shead

|-----------------------------|-----------------------
|----3-0-0-------1-0-1-0------|----3-0-0-0-0----------
|--0-------2-2-0---------2-0--|--0-----------2-0-2-2/0
|-----------------------------|-----------------------
|-----------------------------|-----------------------
|-----------------------------|-----------------------
at the end you pull down on 2 so it makes the sound of 0


this is the second part

from: She was looking kinda.....
till: shape of an L on her fore head
|-------------------------------------------------
|------3-0-3-0-0-----1-0-1-0-------3-0-0----------
|--2-0-----------2-0---------2-0-0-------2-0-0-2-0
|-------------------------------------------------
|-------------------------------------------------
|-------------------------------------------------

Добавлено: 17.02.2014
Вам также может быть интересно:
Другие материалы по этой песне:
  • Аккорды и текст

Страница создана 18.10.2013
http://primanota.ru/smash-mouth/all-stars-chords.htm
Привет, Гость.
Предлагаем пройти революционный курс по гитаре.
Подарок от PrimaNota.Ru, забирай!