PrimaNota.ru - самый крупный в мире бесплатный архив песенных текстов, аккордов, табулатур и нот


Slipknot - Lech - таба, бас-таба, видео

Регистрация Запомнить меня
Войти через:  Facebook Google Twitter Vk Yandex Mail.ru

Slipknot - Lech - таба, бас-таба, видео

Печатать
Просмотров: 479
Уроки эстрадного вокала в Санкт-Петербурге


SLIPKNOT

LECH


B-F#-B-E-G#-C#



TABBED BY andherembrace



---------------------------------------------------------------------------------------|
---------------------------------------------------------------------------------------|
---------------------------------------------------------------------------------------|
---------------------------------------------------------------------------------------|
--1--4---^--------^--------^--------^--------^------^------^--------^------------------|
\-1--4--1-0-0000-1-0-0000-1-0-0000-1-0-0000-1-0-00-1-0-00-1-0-0000-1-0-0000-1-6-5-1-4~~|
            ****     ****     ****     ****     **     **     ****     **** * * * *

-----------------------------------------------------------------------------------------|
-----------------------------------------------------------------------------------------|
-----------------------------------------------------------------------------------------|
-----------------------------------------------------------------------------------------|
--1--4---^--------^--------^--------^--------^------^------^--------^------------------0-|
--1--4--1-0-0000-1-0-0000-1-0-0000-1-0-0000-1-0-00-1-0-00-1-0-0000-1-0-0000-1-6-5-1-4~~0-|
            ****     ****     ****     ****     **     **     ****     **** * * * *




0:17


------------------------------------------------------------------|
------------------------------------------------------------------|
------------------------------------------------------------------|
------------------------------------------------------------------|
---)----) (---------)----) (--------)----) (---------)----) (-----|
-12---12~---------12---12---------12---12----------12---12--------|

---------------------------------------------------------------------|
-----------------------------------------------------------------H---|
----------------------------------------------------------------2.75-|
---------------------------------------------------------------------|
---)----) (---------)----) (--------)----) (---------)----) (--------|
-12---12~---------12---12---------12---12----------12---12-----------|






0:42


---------------------------------------------------------------------------------------|
---------------------------------------------------------------------------------------|
---------------------------------------------------------------------------------------|
---------------------------------------------------------------------------------------|
--1--4---^--------^--------^--------^--------^------^------^--------^------------------|
--1--4--1-0-0000-1-0-0000-1-0-0000-1-0-0000-1-0-00-1-0-00-1-0-0000-1-0-0000-1-6-5-1-4~~|
            ****     ****     ****     ****     **     **     ****     **** * * * *

-----------------------------------------------------------------------------------------|
-----------------------------------------------------------------------------------------|
-----------------------------------------------------------------------------------------|
-----------------------------------------------------------------------------------------|
--1--4---^--------^--------^--------^--------^------^------^--------^--------------------|
--1--4--1-0-0000-1-0-0000-1-0-0000-1-0-0000-1-0-00-1-0-00-1-0-0000-1-0-0000-1-6-5-1-4~~--|
            ****     ****     ****     ****     **     **     ****     **** * * * *





0:55

L
-----------------------------------------------------------|
-----------------------------------------------------------|
-----------------------------------------------------------|
-----------5-5-5-5-0-0-6--6--------------6-6-6-6-0-0-5--5--|
-2-----)-(---------------------2-----)-(-------------------|
-2--X-2----------------------0-2--X-2----------------------|
    *                        *
R
-----------------------------------------------------------|
-----------------------------------------------------------|
-----------------------------------------------------------|
-----------------------------------------------------------|
-2-----)-(-3-3-3-3-0-0-4~-4----2-----)-(-4-4-4-4-0-0-3~-3--|
-2--X-2----------------------0-2--X-2----------------------|
    *                        *


L
-------------------------------------------------------|
-------------------------------------------------------|
-------------------------------------------------------|
-----------5-5-5-5-0-0-6--6----------------------------|
-2-----)-(---------------------2-----)-(-6-4-5---------|
-2--X-2----------------------0-2--X-2----6-4-5--0/-\---|
    *                        *
R
-------------------------------------------------------|
-------------------------------------------------------|
-------------------------------------------------------|
-------------------------------------------------------|
-2-----)-(-3-3-3-3-0-0-4~-4----2-----)-(-6-4-5---------|
-2--X-2----------------------0-2--X-2----6-4-5--0/-\---|







1:08



---------------------------------------------------------------------------------------|
---------------------------------------------------------------------------------------|
---------------------------------------------------------------------------------------|
---------------------------------------------------------------------------------------|
--1--4---^--------^--------^--------^--------^------^------^--------^------------------|
\-1--4--1-0-0000-1-0-0000-1-0-0000-1-0-0000-1-0-00-1-0-00-1-0-0000-1-0-0000-1-6-5-1-4~~|
            ****     ****     ****     ****     **     **     ****     **** * * * *

-----------------------------------------------------------------------------------------|
-----------------------------------------------------------------------------------------|
-----------------------------------------------------------------------------------------|
-----------------------------------------------------------------------------------------|
--1--4---^--------^--------^--------^--------^------^------^--------^------------------0-|
--1--4--1-0-0000-1-0-0000-1-0-0000-1-0-0000-1-0-00-1-0-00-1-0-0000-1-0-0000-1-6-5-1-4~~0-|
            ****     ****     ****     ****     **     **     ****     **** * * * *




1:21



------------------------------------------------------------------|
------------------------------------------------------------------|
------------------------------------------------------------------|
------------------------------------------------------------------|
---)----) (---------)----) (--------)----) (---------)----) (-----|
-12---12~---------12---12---------12---12----------12---12--------|

-------------------------------------|
---------------------------------H---|
--------------------------------2.75-|
-------------------------------------|
----)----) (---------)----) (--------|
--12---12----------12---12-----------|





1:40


-----------------------------------------------------------------------------------------|
-----------------------------------------------------------------------------------------|
-----------------------------------------------------------------------------------------|
-----------------------------------------------------------------------------------------|
--1--4---^--------^--------^--------^--------^------^------^--------^--------------------|
--1--4--1-0-0000-1-0-0000-1-0-0000-1-0-0000-1-0-00-1-0-00-1-0-0000-1-0-0000-1-6-5-1-4~~--|
            ****     ****     ****     ****     **     **     ****     **** * * * *


1:47



L
------------------------------------------------------------|
------------------------------------------------------------|
------------------------------------------------------------|
-----------5-5-5-5-0-0-6--6--------------6-6-6-6-0-0-5--5---|
-2-----)-(---------------------2-----)-(--------------------|
-2--X-2----------------------0-2--X-2---------------------0-|
    *                        *                            *
R
------------------------------------------------------------|
------------------------------------------------------------|
------------------------------------------------------------|
------------------------------------------------------------|
-2-----)-(-3-3-3-3-0-0-4~-4----2-----)-(-4-4-4-4-0-0-3~-3---|
-2--X-2----------------------0-2--X-2---------------------0-|
    *                        *                            *


L
-------------------------------------------------------|
-------------------------------------------------------|
-------------------------------------------------------|
-----------5-5-5-5-0-0-6--6----------------------------|
-2-----)-(---------------------2-----)-(-6-4-5---------|
-2--X-2----------------------0-2--X-2----6-4-5--0/-\---|
    *                        *
R
-------------------------------------------------------|
-------------------------------------------------------|
-------------------------------------------------------|
-------------------------------------------------------|
-2-----)-(-3-3-3-3-0-0-4~-4----2-----)-(-6-4-5---------|
-2--X-2----------------------0-2--X-2----6-4-5---/-\---|





2:00


---------------------------------------------------------------------------------------|
---------------------------------------------------------------------------------------|
---------------------------------------------------------------------------------------|
---------------------------------------------------------------------------------------|
--1--4---^--------^--------^--------^--------^------^------^--------^------------------|
\-1--4--1-0-0000-1-0-0000-1-0-0000-1-0-0000-1-0-00-1-0-00-1-0-0000-1-0-0000-1-6-5-1-4~~|
            ****     ****     ****     ****     **     **     ****     **** * * * *

-----------------------------------------------------------------------------------------|
-----------------------------------------------------------------------------------------|
-----------------------------------------------------------------------------------------|
-----------------------------------------------------------------------------------------|
--1--4---^--------^--------^--------^--------^------^------^--------^------------------0-|
--1--4--1-0-0000-1-0-0000-1-0-0000-1-0-0000-1-0-00-1-0-00-1-0-0000-1-0-0000-1-6-5-1-4~~0-|
            ****     ****     ****     ****     **     **     ****     **** * * * *








2:20

                                       
------------------------------------------------------------------------------------------------|
------------------------------------------------------------------------------------------------|
------------------------------------------------------------------------------------------------|
------------------------------------------------------------------------------------------------|
-1-1-1-4-4-4-3-\(0)------------------0-7-6-5-2----1-1-1-4-4-4-3-\(0)------------------0-7-6-5-2-|
-1-1-1-4-4-4-3-\(0)-----0-6-0-8-7----0-7-6-5-2----1-1-1-4-4-4-3-\(0)-----0-6-0-8-7----0-7-6-5-2-|
                                     * * * *                                          * * * *

------------------------------------------------------------------------------------------------|
------------------------------------------------------------------------------------------------|
------------------------------------------------------------------------------------------------|
------------------------------------------------------------------------------------------------|
-1-1-1-4-4-4-3-\(0)------------------0-7-6-5-2----1-1-1-4-4-4-3-\(0)------------------0-7-6-5-2-|
-1-1-1-4-4-4-3-\(0)-----0-6-0-8-7----0-7-6-5-2----1-1-1-4-4-4-3-\(0)-----0-6-0-8-7----0-7-6-5-2-|
                                     * * * *                                          * * * *






2:45

------------------------------------------------------------------|
------------------------------------------------------------------|
------------------------------------------------------------------|
------------------------------------------------------------------|
-1-1-1-4-4-4-3-3-1-1-1-4-4-4-3-3-3---------------3-3-3-4-4-4-2-2--|
-1-1-1-4-4-4-3-3-1-1-1-4-4-4-3-3-3-0-6-0-8-7-6-7-3-3-3-4-4-4-2-2--|
                                                 * * * * * * * *       

L
------------------------------------------------------------------|
------------------------------------------------------------------|
-3-3-3-6-6-6-5-5-3-3-3-6-6-6-5-5-5--------------------------------|
-X-X-X-X-X-X-X-X-X-X-X-X-X-X-X-X-X--------------------------------|
-1-1-1-4-4-4-3-3-1-1-1-4-4-4-3-3-3---------------3-3-3-4-4-4-2-2--|
-----------------------------------0-6-0-8-7-6-7-3-3-3-4-4-4-2-2--|
                                                 * * * * * * * *  
R
------------------------------------------------------------------|
------------------------------------------------------------------|
------------------------------------------------------------------|
------------------------------------------------------------------|
-1-1-1-4-4-4-3-3-1-1-1-4-4-4-3-3-3---------------3-3-3-4-4-4-2-2--|
-1-1-1-4-4-4-3-3-1-1-1-4-4-4-3-3-3-0-6-0-8-7-6-7-3-3-3-4-4-4-2-2--|
                                                 * * * * * * * *  






2:58


--------------------------------------------------------------|
--------------------------------------------------------------|
--------------------------------------------------------------|
--------------------------------------------------------------|
--)(-------------)(-------------)(-------------)(-------------|
-1---0-1--0-1-0-1---0-1-000000-1---0-1--0-1-0-1---0-1-0-00-0--|
          * * *         ******          * * *         * ** *

------------------------------------------------|
------------------------------------------------|
------------------------------------------------|
------------------------------------------------|
--)(-------------)(-------------)(------------1-|
-1---0-1--0-1-0-1---0-1-000000-1---0-1--0-1-0-1-|
          * * *         ******          * * *    





3:11


--------------------------------------------------------------|
--------------------------------------------------------------|
--------------------------------------------------------------|
--------------------------------------------------------------|
--)(-------------)(-------------)(-------------)(-------------|
-1---0-1--0-1-0-1---0-1-000000-1---0-1--0-1-0-1---0-1-0-00-0--|
          * * *         ******          * * *         * ** *

--------------------------------------------------------------|
--------------------------------------------------------------|
--------------------------------------------------------------|
--------------------------------------------------------------|
--)(-------------)(-------------)(------0-1-4-3-0-4-5-6-5-6-7-|
-1---0-1--0-1-0-1---0-1-000000-1---0-1--0-1-4-3-0-4-5-6-5-6-7-|
          * * *         ******          * * * * * * * * * * *





3:24


----------------------------------------------------------------------------------------|
----------------------------------------------------------------------------------------|
-----------------9--------9--------9-----------------9--------9--------9----------------|
-----------------9--------9--------9-----------------9--------9--------9----------------|
-----------------7--7--7--7--7--7--7--7--7-----------7--7--7--7--7--7--7--7--7----------|
7777777777777777-7--7--7--7--7--7--7--7--7--66666666-7--7--7--7--7--7--7--7--7--66666666|
****************    *  *     *  *     *  *  ********    *  *     *  *     *  *  ********


----------------------------------------------------------------------------|
----------------------------------------------------------------------------|
-9--------9--------9-----------------9--------9--------9--------------------|
-9--------9--------9-----------------9--------9--------9--------------------|
-7--7--7--7--7--7--7--7--7-----------7--7--7--7--7--7--7--7--7--------------|
-7--7--7--7--7--7--7--7--7--66666666-7--7--7--7--7--7--7--7--7--66666666----|
    *  *     *  *     *  *  ********    *  *     *  *     *  *  ********






3:38



1
----------------------------------------------------------------|
----------------------------------------------------------------|
----------------------------------------------------------------|
----------------------------------------------------------------|
-4-6--------------6--7-8-7-6---4-6--------------6--7-8-7-6------|
-4-6-4/--0-000000-6--7-8-7-6-0-4-6-4/--0-000000-6--7-8-7-6-0----|
         * ******            *         * ******            *
 
2
----------------------------------------------------------------|
///-GRAD BENDS-N RELEASES-----///-GRAD BENDS-N RELEASES---------|
-7-----------------------------7--------------------------------|
----------------------------------------------------------------|
----------------------------------------------------------------|
----------------------------------------------------------------|


1
----------------------------------------------------------------|
----------------------------------------------------------------|
----------------------------------------------------------------|
----------------------------------------------------------------|
-4-6--------------6--7-8-7-6---4-6--------------6--7-8-7-6------|
-4-6-4/--0-000000-6--7-8-7-6-0-4-6-4/--0-000000-6--7-8-7-6-0----|
         * ******            *         * ******            *

2
----------------------------------------------------------------|
///-GRAD BENDS-N RELEASES-----///-GRAD BENDS--------------------|
-10---------------------------12--------------------------------|
----------------------------------------------------------------|
----------------------------------------------------------------|
----------------------------------------------------------------|




3:52



---------------------------------------------------------------------------------|
---------------------------------------------------------------------------------|
------------------5-----------5----------------------------5-----------5---------|
------------------5-----------5----------------------------5-----------5---------|
------------------3--3--3--3--3--3--3--3--4----------------3--3--3--3--3--3--3--3|
-4444444444444444-3--3--3--3--3--3--3--3--4-44444444444444-3--3--3--3--3--3--3--3|
 ****************    *  *  *     *  *  *    **************    *  *  *     *  *  


-----------------------------------------------------------|
-----------------------------------------------------------|
------------------5-----------5----------------------------|
------------------5-----------5----------------------------|
-4----------------3--3--3--3--3--3--3--3--4----------------|
-4-44444444444444-3--3--3--3--3--3--3--3--4-44444444444444-|
   **************    *  *  *     *  *       **************   


-------------------------------------------------------------------------|
-------------------------------------------------------------------------|
-5--------5--------5--------5--------5--------5--------5--------5--------|
-5--------5--------5--------5--------5--------5--------5--------5--------|
-3--3--3--3--3--3--3--3--3--3--3--3--3--3--3--3--3--3--3--3--3--3--3--3--|
-3--3--3--3--3--3--3--3--3--3--3--3--3--3--3--3--3--3--3--3--3--3--3--3--|
    *  *     *  *     *  *     *  *     *  *     *  *     *  *     *  *



1
----------------------------------------------------------------|
----------------------------------------------------------------|
----------------------------------------------------------------|
----------------------------------------------------------------|
-4-6--------------6--7-8-7-6---4-6--------------6--7-8-7-6------|
-4-6-4-/-0-000000-6--7-8-7-6-0-4-6-4-/-0-000000-6--7-8-7-6-0----|
         * ******            *         * ******            *

2
----------------------------------------------------------------|
///-GRAD BENDS-N RELEASES-----///-GRAD BENDS-N RELEASES---------|
11-----------------------------11-------------------------------|
----------------------------------------------------------------|
----------------------------------------------------------------|
----------------------------------------------------------------|



1
----------------------------------------------------------------|
----------------------------------------------------------------|
----------------------------------------------------------------|
----------------------------------------------------------------|
-4-6--------------6--7-8-7-6---4-6--------------6--7-8-7-6------|
-4-6-4-/-0-000000-6--7-8-7-6-0-4-6-4-/-0-000000-6--7-8-7-6-0----|
         * ******            *         * ******            *

2
----------------------------------------------------------------|
///-GRAD BENDS-N RELEASES-----///-GRAD BENDS--------------------|
14----------------------------16--------------------------------|
----------------------------------------------------------------|
----------------------------------------------------------------|
----------------------------------------------------------------|




------------------------------------------------------------|
------------------------------------------------------------|
------------------------------------------------------------|
------------------------------------------------------------|
-1--4--1-0-1-4-1-0-1-0-1-4-1-0-1--4--1-0-1-4-1-0------------|
-1--4--1-0-1-4-1-0-1-0-1-4-1-0-1--4--1-0-1-4-1-0-1-6-5-1-4~-|
       * * * * * * * * * * * *       * * * * * * 

------------------------------------------------------------|
------------------------------------------------------------|
------------------------------------------------------------|
------------------------------------------------------------|
-1--4--1-0-1-4-1-0-1-0-1-4-1-0-1--4--1-0-1-4-1-0------------|
-1--4--1-0-1-4-1-0-1-0-1-4-1-0-1--4--1-0-1-4-1-0-1-6-5-1-4~-|
       * * * * * * * * * * * *       * * * * * * 



1
------------------------------------------------------------|
------------------------------------------------------------|
------------------------------------------------------------|
------------------------------------------------------------|
-1--4--1-0-1-4-1-0-1-0-1-4-1-0-1--4--1-0-1-4-1-0------------|
-1--4--1-0-1-4-1-0-1-0-1-4-1-0-1--4--1-0-1-4-1-0-1-6-5-1-4~-|
       * * * * * * * * * * * *       * * * * * * 
2
--------------------------------------------------------------------|
--------------------------------------------------------------------|
--------------------------------------------------------------------|
-8--11--8-7-8-11-8-7-8-7-8-11-8-7-8--11--8-7-8-11-8-7-8-13-12-8-11~-|
--------------------------------------------------------------------|
--------------------------------------------------------------------|

1
------------------------------------------------------------|
------------------------------------------------------------|
------------------------------------------------------------|
------------------------------------------------------------|
-1--4--1-0-1-4-1-0-1-0-1-4-1-0-1--4--1-0-1-4-1-0------------|
-1--4--1-0-1-4-1-0-1-0-1-4-1-0-1--4--1-0-1-4-1-0-1-6-5-1-4~-|
       * * * * * * * * * * * *       * * * * * * 
2
--------------------------------------------------------------------|
--------------------------------------------------------------------|
--------------------------------------------------------13-12-8-11--|
-8--11--8-7-8-11-8-7-8-7-8-11-8-7-8--11--8-7-8-11-8-7-8-------------|
--------------------------------------------------------------------|
--------------------------------------------------------------------|











Добавлено: 14.11.2014
Другие материалы по этой песне:

Страница создана 14.11.2014
http://primanota.ru/slipknot/lech-chords.htm
Привет, Гость.
Предлагаем пройти революционный курс по гитаре.
Подарок от PrimaNota.Ru, забирай!