PrimaNota.ru - самый крупный в мире бесплатный архив песенных текстов, аккордов, табулатур и нот


Slipknot - Sarcastrophe - таба, бас-таба, видео

Регистрация Запомнить меня
Войти через:  Facebook Google Twitter Vk Yandex Mail.ru

Slipknot - Sarcastrophe - таба, бас-таба, видео

Печатать
Просмотров: 396
SLIPKNOT

SARCASTROPHE

A-E-A-D-F#-B


TABBED BY andherembrace


https://drive.google.com/file/d/0B1AHRImLJJTYRHp2NEF4clRJd2c/view?pli=1





-----------------------------------------------------------------|
-----------------------------------------------------------------|
---------19------19------19-------------14-------14------14------|
-----------------------------------------------------------------|
-----17------17------17-----17------12------12-------12------12--|
-0------------------------------0--------------------------------|

-----------------------------------------------------------------|
-----------------------------------------------------------------|
---------12------12------12--------------7------7-----7----------|
-----------------------------------------------------------------|
----10------10------10-------10------5------5------5-----5-------|
-0-------------------------------0-------------------------------|



-----------------------------------------------------------------|
-----------------------------------------------------------------|
---------19------19------19-------------14-------14------14------|
-----------------------------------------------------------------|
-----17------17------17-----17------12------12-------12------12--|
-0------------------------------0--------------------------------|



---------------------------------------------------------------------------|
---------------------------------------------------------------------------|
---------12------12------12-------------7------7-----7-----7-----7-----7---|
---------------------------------------------------------------------------|
----10------10------10-------10------5-----5------5-----5-----5-----5----5-|
-0-------------------------------0-----------------------------------------|



0:21


W/HARMONY SET TO +1 OCTAVE
----------------------------------------------------------------------------|
----------------3------3------3---------------------------------------------|
-----------0------0------0------0--------------0---------2------2-----------|
---------5---5------5------5------5----------5---5---------0------0-----0---|
-----5/6---------------------------------5/6----------3------3------3-3-----|
-0-----------------------------------0--------------3-----------------------|



----------------------------------------------------------------------------|
----------------3------3------3---------------------------------------------|
-----------0------0------0------0--------------0---------2------2-----------|
---------5---5------5------5------5----------5---5---------0------0-----0---|
-----5/6---------------------------------5/6----------3------3------3-3-----|
-0-----------------------------------0--------------3-----------------------|





0:40

----------------------------------------------------------------------------|
----------------------------------------------------------------------------|
----------------------------------------------------------------------------|
----------------------------------------------------------------------------|
--------12-12-------------10-10--------------12-12-------------10-10--------|
-\-0----12-12~---/-\-0----10-10~---/--\-0----12-12~---/-\-0----10-10~-------|






1:00


L
----------------------------------------------------------------------------|
----------------------------------------------------------------------------|
----------------------------------------------------------------------------|
------------------------------------------------------------------------3---|
-0----------------------0--1--0-------0-----------------------1--0------1---|
-0----------------------0--1--0-------0-----------------------1--0----------|
   |                            |       |                          |
R
--------------------------------------------------------------------------|
--------------------------------------------------------------------------|
----------___---------------------------------___---------------------3---|
---------/   \----___------------------------/   \----___-------------3---|
--------5-6-5-6--/   \------------1---------5-6-5-6--/   \------------1---|
-0--5-6---------5-6-5-6-0--1-0--0-1--0--5-6---------5-6-5-6-0--1-0--0-----|
                                *                                   *


L
----------------------------------------------------------------------------|
----------------------------------------------------------------------------|
----------------------------------------------------------------------------|
--------------------------------------------------------------------^-------|
-0----------------------0----------1--0----------------------------1-0------|
-0----------------------0----------1--0------------/-\-----1-0-1-3-----1-3--|
   |                      |             |                      
R
----------------------------------------------------------------------------|
----------------------------------------------------------------------------|
----------___---------------------------------___---------------------------|
---------/   \----___------------------------/   \----___------------^------|
--------5-6-5-6--/   \------------1---------5-6-5-6--/   \----------1-0-----|
-0--5-6---------5-6-5-6-0--1-0--0-1--0--5-6---------5-6-5-6-1-0-1-3-----1-3-|
                                *                                    







1:10

--------------------------------------------------------------------------|
--------------------------------------------------------------------------|
----------___---------------------------------___---------------------3---|
---------/   \----___------------------------/   \----___-------------3---|
-----^--5-6-5-6--/   \------------1------^--5-6-5-6--/   \------------1---|
-0--5-6---------5-6-5-6-0--1-0--0-1--0--5-6---------5-6-5-6-0--1-0--0-----|
                                *                                   *

----------------------------------------------------------------------------|
----------------------------------------------------------------------------|
----------___---------------------------------___---------------------------|
---------/   \----___------------------------/   \----___------------^------|
-----^--5-6-5-6--/   \------------1------^--5-6-5-6--/   \----------1-0-----|
-0--5-6---------5-6-5-6-0--1-0--0-1--0--5-6---------5-6-5-6-1-0-1-3-----1-3-|
                                *                                    




1:19

----------------------------------------------------------|
----------------------------------------------------------|
----------------------------------------------------------|
-----------------------------------------------------3----|
---------^---------------1----------^----------------1----|
-0--0-0-1-0-0-1-0--1-0-0-1--0--0-0-1-0-0-1-0--1-0-0-------|
    * *                *       * *                *


-----------------------------------------------------------|
-----------------------------------------------------------|
-----------------------------------------------------------|
----------------------------------------------------^------|
---------^---------------1----------^--------------1-0-----|
-0--0-0-1-0-0-1-0--1-0-0-1--0--0-0-1-0-0-1-1-0-1-3-----1-3-|
    * *                *       * *          

----------------------------------------------------------|
----------------------------------------------------------|
----------------------------------------------------------|
-----------------------------------------------------3----|
---------^---------------1----------^----------------1----|
-0--0-0-1-0-0-1-0--1-0-0-1--0--0-0-1-0-0-1-0--1-0-0-------|
    * *                *       * *                *


-----------------------------------------------------------|
-----------------------------------------------------------|
-----------------------------------------------------------|
----------------------------------------------------^------|
---------^---------------1----------^--------------1-0-----|
-0--0-0-1-0-0-1-0--1-0-0-1--0--0-0-1-0-0-1-1-0-1-3-----1-3-|
    * *                *       * *               






1:38


L
----------------------------------------------------------------------------------|
----------------------------------------------------------------------------------|
------------------________________------------------------------------------------|
------------------)||||||||||||||(------------------------------------------------|
-99999999999999999999999999999999999999999999999912121212121212121212121212121212-|
----------------------------------------------------------------------------------|

R
------------------------------------------------------------------|
------------------------------------------------------------------|
------------------________________--------------------------------|
------------------)||||||||||||||(--------------------------------|
-5555555555555555555555555555555555555555555555558888888888888888-|
------------------------------------------------------------------|



L
----------------------------------------------------------------------------------|
----------------------------------------------------------------------------------|
------------------________________------------------------------------------------|
------------------)||||||||||||||(------------------------------------------------|
-99999999999999999999999999999999999999999999999912121212121212121212121212121212-|
----------------------------------------------------------------------------------|


R
----------------------------------------------------------------------------------|
----------------------------------------------------------------------------------|
------------------________________------------------------------------------------|
------------------)||||||||||||||(------------------------------------------------|
-55555555555555555555555555555555555555555555555512121212121212121212121212121212-|
----------------------------------------------------------------------------------|






1:48

--------------------------------------------------|
--------------------------------------------------|
--------------------------------------------------|
--------------------------------------------------|
--------------------------------------------------|
--6--1---0-1-1-0-4-4-0-1--6--1---0-1-1-0-1-1-0-1--|

 ARTIFICIAL HARMONY  EQUIVELENT
--------------------------------------------------|
--------------------------------------------------|
-5--1-------------------5--1--7-8-8-7-8-8-7-8-----|
--------------------------------------------------|
--------------------------------------------------|
-------0-1-1-0-4-4-0-1----------------------------|


--------------------------------------------------|
--------------------------------------------------|
--------------------------------------------------|
--------------------------------------------------|
--------------------------------------------------|
--6--1---0-1-1-0-4-4-0-1--6--1---0-6-6-0-6-6-0-6--|


---------------------------------------------------|
---------------------------------------------------|
-5--1--------------------5--1----------------------|
---------------------------------------------------|
---------------------------------------------------|
-------0-1-1-0-4-4-0-1----------0-6-6-0-6-6-0-6----|







1:56

--------------------------------------------------------------------------|
--------------------------------------------------------------------------|
----------___---------------------------------___---------------------3---|
---------/   \----___------------------------/   \----___-------------3---|
-----^--5-6-5-6--/   \------------1------^--5-6-5-6--/   \------------1---|
-0--5-6---------5-6-5-6-0--1-0--0-1--0--5-6---------5-6-5-6-0--1-0--0-----|
                                *                                   *

----------------------------------------------------------------------------|
----------------------------------------------------------------------------|
----------___---------------------------------___---------------------------|
---------/   \----___------------------------/   \----___------------^------|
-----^--5-6-5-6--/   \------------1------^--5-6-5-6--/   \----------1-0-----|
-0--5-6---------5-6-5-6-0--1-0--0-1--0--5-6---------5-6-5-6-1-0-1-3-----1-3-|
                                *                                    






L                              B
---------------------------------------------------------|
---------------------------------------------------------|
---------------------------------------------------------|
-----------------------------------------------------3---|
---------^---------------1----------^----------------1---|
-0--0-0-1-0-0-1-0--1-0-0-1--0--0-0-1-0-0-1-0--1-0-0------|
    * *                *       * *                *


---------------------------------------------------------|
---------------------------------------------------------|
---------------------------------------------------------|
-----------------------------------------------------3---|
---------^---------------1----------^----------------1---|
-0--0-0-1-0-0-1-0--1-0-0-1--0--0-0-1-0-0-1-0--1-0-0------|
    * *                *       * *                *


-----------------------------------------------------------|
-----------------------------------------------------------|
-----------------------------------------------------------|
----------------------------------------------------^------|
---------^---------------1----------^--------------1-0-----|
-0--0-0-1-0-0-1-0--1-0-0-1--0--0-0-1-0-0-1-1-0-1-3-----1-3-|
    * *                *       * *                


---------------------------------------------------------|
---------------------------------------------------------|
---------------------------------------------------------|
-----------------------------------------------------3---|
---------^---------------1----------^----------------1---|
-0--0-0-1-0-0-1-0--1-0-0-1--0--0-0-1-0-0-1-0--1-0-0------|
    * *                *       * *                * 


-----------------------------------------------------------|
-----------------------------------------------------------|
-----------------------------------------------------------|
----------------------------------------------------^------|
---------^---------------1----------^--------------1-0-----|
-0--0-0-1-0-0-1-0--1-0-0-1--0--0-0-1-0-0-1-1-0-1-3-----1-3-|
    * *                *       * *                





2:29


----------------------------------------------------------|
----------------------------------------------------------|
------------------------------------------___-------------|
-----------------------------------------/   \---^--------|
------------5------------5------------0-5-6-5-0-5-0-------|
-6~\--0-5-6---6~\--0-5-6---6~\--0-5-6---------------6-7---|


----------------------------------------------------------|
----------------------------------------------------------|
------------------------------------------___-------------|
-----------------------------------------/   \---^--------|
------------5------------5------------0-5-6-5-0-5-0-------|
-6~\--0-5-6---6~\--0-5-6---6~\--0-5-6---------------6-0---|



----------------------------------------------------------|
----------------------------------------------------------|
------------------------------------------___-------------|
-----------------------------------------/   \---^--------|
------------5------------5------------0-5-6-5-0-5-0-------|
-6~\--0-5-6---6~\--0-5-6---6~\--0-5-6---------------6-7---|


----------------------------------------------------------|
----------------------------------------------------------|
------------------------------------------___-------------|
-----------------------------------------/   \---^--------|
------------5------------5------------0-5-6-5-0-5-0-1-----|
-6~\--0-5-6---6~\--0-5-6---6~\--0-5-6---------------1-----|






2:48


L
-------------------------------------------------|
-------------------------------------------------|
-------------------------------------------------|
------------------------------------------PH-----|
-0--1--0--1--0--1--6--5--0--1--0--1--0--1-2-PH---|
-0--1--0--1--0--1--6--5--0--1--0--1--0--1----3~--|
 *  *  *  *  *  *  *  *  *  *  *  *  *  *

R
-------------------------------------------------|
-------------------------------------------------|
-------------------------------------------------|
-------------------------------------------------|
-0--1--0--1--0--1--6--5--0--1--0--1--0--1---)-(--|
-0--1--0--1--0--1--6--5--0--1--0--1--0--1--1-----|
 *  *  *  *  *  *  *  *  *  *  *  *  *  *



L
-------------------------------------------------|
-------------------------------------------------|
-------------------------------------------------|
------------------------------------------PH-----|
-0--1--0--1--0--1--6--5--0--1--0--1--0--1-3-PH---|
-0--1--0--1--0--1--6--5--0--1--0--1--0--1----2~--|
 *  *  *  *  *  *  *  *  *  *  *  *  *  *

R
-------------------------------------------------|
-------------------------------------------------|
-------------------------------------------------|
-------------------------------------------------|
-0--1--0--1--0--1--6--5--0--1--0--1--0--1---)PH--|
-0--1--0--1--0--1--6--5--0--1--0--1--0--1--1-----|
 *  *  *  *  *  *  *  *  *  *  *  *  *  *










--------------------------------------------------------------------------|
--------------------------------------------------------------------------|
----------___---------------------------------___---------------------3---|
---------/   \----___------------------------/   \----___-------------3---|
-----^--5-6-5-6--/   \------------1------^--5-6-5-6--/   \------------1---|
-0--5-6---------5-6-5-6-0--1-0--0-1--0--5-6---------5-6-5-6-0--1-0--0-----|
                                *                                   *

----------------------------------------------------------------------------|
----------------------------------------------------------------------------|
----------___---------------------------------___---------------------------|
---------/   \----___------------------------/   \----___------------^------|
-----^--5-6-5-6--/   \------------1------^--5-6-5-6--/   \----------1-0-----|
-0--5-6---------5-6-5-6-0--1-0--0-1--0--5-6---------5-6-5-6-1-0-1-3-----1-3-|
                                *                                    


3:07

------------------------------------------------------|
------------------------------------------------------|
--------------___------------------------___----------|
-----^--5----/   \---^----------^--5----/   \---^-----|
----5-6---6-5-6-5-0-5-0--------5-6---6-5-6-5-0-5-0-1--|
-0----------------------6-7-0----------------------1--|


--------------------------------------------------------|
--------------------------------------------------------|
--------------___---------------------------------------|
-----^--5----/   \---^----------^--5------------^-------|
----5-6---6-5-6-5-0-5-0--------5-6---6---------1-0------|
-0----------------------6-7-0----------1-0-1-3-----1-3--|








3:17

1
-------------------------------------------------------------|
-------------------------------------------------------------|
-------------------------------------------------------------|
-------------------------------------------------------------|
-------------------------------------------------------------|
-1--1111-1--1111-1--1111-3--0--1--1111-1--1111-1--1111-5--3--|
    ****    ****    ****          ****    ****    ****
2
------------------------------------------------------------|
------------------------------------------------------------|
-8------------10-------7-----8--------12------10------------|
-X-------------X-------X-----X---------X-------X------------|
-6-------------8-------5-----6--------10-------8------------|
------------------------------------------------------------|
             /                      /

1
-------------------------------------------------------------|
-------------------------------------------------------------|
-------------------------------------------------------------|
-----------------------------5-------------------------------|
-----------------------------3-------------------------------|
-0--0000-0--0000-0--0000--1----0--0000-0--0000-0--0000-3--0--|
    ****    ****    ****          ****    ****    ****

2
-----------------------------------___-----------------------|
----------------------------------/   \----------------------|
-7-------------------------------7-8-7-5--7------------------|
-X-------------------------------X-X-X-X--X------------------|
-5-------------------------------5/6\5\3--5------------------|
-------------------------------------------------------------|


1
-------------------------------------------------------------|
-------------------------------------------------------------|
-------------------------------------------------------------|
-------------------------------------------------------------|
-------------------------------------------------------5--3--|
-1--1111-1--1111-1--1111-3--0--1--1111-1--1111-1--1111-5--3--|
    ****    ****    ****          ****    ****    ****
2
-------------------------------------------------------------|
-------------------------------------------------------------|
--17-----------15-14-15------------19------17------12--------|
---X------------X--X--X-------------X-------X-------X--------|
-/15-----------13\12-13------------17------15------10--------|
-------------------------------------------------------------|
                                /

1
-------------------------------------------------------------|
-------------------------------------------------------------|
-------------------------------------------------------------|
-----------------------------5-------------------------------|
-----------------------------3-------------------------------|
-0--0000-0--0000-0--0000--1----0--0000-0--0000-0--0000-3--0--|
    ****    ****    ****          ****    ****    ****

2
-------------------------------------------------------------|
-------------------------------------------------------------|
-14----------------------------------------------------------|
--X--------------P-------------------------------------------|
-12---------------S\-----------------------------------------|
-------------------------------------------------------------|






3:35


------------------------------------------------------|
------------------------------------------------------|
--------------___------------------------___----------|
-----^--5----/   \---^----------^--5----/   \---^-----|
----5-6---6-5-6-5-0-5-0--------5-6---6-5-6-5-0-5-0-1--|
-0----------------------6-7-0----------------------1--|


--------------------------------------------------------|
--------------------------------------------------------|
--------------___---------------------------------------|
-----^--5----/   \---^----------^--5------------^-------|
----5-6---6-5-6-5-0-5-0--------5-6---6---------1-0------|
-0----------------------6-7-0----------1-0-1-3-----1-3--|



------------------------------------------------------|
------------------------------------------------------|
--------------___------------------------___----------|
-----^--5----/   \---^----------^--5----/   \---^-----|
----5-6---6-5-6-5-0-5-0--------5-6---6-5-6-5-0-5-0-1--|
-0----------------------6-7-0----------------------1--|


-------------------------------------------------------------------------------|
-------------------------------------------------------------------------------|
--------------___--------------------------------------------------------------|
-----^--5----/   \---^----------^--5------------^------------------------------|
----5-6---6-5-6-5-0-5-0--------5-6---6---------1-0------1-3--1-3--1-3------1-3-|
-0----------------------6-7-0----------1-0-1-3-----1-3--1-3--1-3--1-3------1-3-|
                                       * * * *     * *  * *  * *  * *      * *




3:56



L
-------------------------------------------------|
-------------------------------------------------|
-------------------------------------------------|
------------------------------------------PH-----|
-0--1--0--1--0--1--6--5--0--1--0--1--0--1-3-PH---|
-0--1--0--1--0--1--6--5--0--1--0--1--0--1----2~--|
 *  *  *  *  *  *  *  *  *  *  *  *  *  *

R
-------------------------------------------------|
-------------------------------------------------|
-------------------------------------------------|
-------------------------------------------------|
-0--1--0--1--0--1--6--5--0--1--0--1--0--1---)PH--|
-0--1--0--1--0--1--6--5--0--1--0--1--0--1--1-----|
 *  *  *  *  *  *  *  *  *  *  *  *  *  *



L
-------------------------------------------------|
-------------------------------------------------|
-------------------------------------------------|
------------------------------------------PH-----|
-0--1--0--1--0--1--6--5--0--1--0--1--0--1-3-PH---|
-0--1--0--1--0--1--6--5--0--1--0--1--0--1----2~--|
 *  *  *  *  *  *  *  *  *  *  *  *  *  *

R
-------------------------------------------------|
-------------------------------------------------|
-------------------------------------------------|
-------------------------------------------------|
-0--1--0--1--0--1--6--5--0--1--0--1--0--1---)PH--|
-0--1--0--1--0--1--6--5--0--1--0--1--0--1--1-----|
 *  *  *  *  *  *  *  *  *  *  *  *  *  *







--------------------------------------------------------------------------|
--------------------------------------------------------------------------|
----------___---------------------------------___---------------------3---|
---------/   \----___------------------------/   \----___-------------3---|
-----^--5-6-5-6--/   \------------1------^--5-6-5-6--/   \------------1---|
-0--5-6---------5-6-5-6-0--1-0--0-1--0--5-6---------5-6-5-6-0--1-0--0-----|
                                *                                   *

---------------------------------------|
---------------------------------------|
----------___--------------------------|
---------/   \----___------------------|
-----^--5-6-5-6--/   \------------1--0-|
-0--5-6---------5-6-5-6-0--1-0--0-1--0-|
                                *                                    






L
----------------------------------------------------------------------------------|
----------------------------------------------------------------------------------|
------------------________________------------------------------------------------|
------------------)||||||||||||||(------------------------------------------------|
-99999999999999999999999999999999999999999999999912121212121212121212121212121212-|
----------------------------------------------------------------------------------|


R
------------------------------------------------------------------|
------------------------------------------------------------------|
------------------________________--------------------------------|
------------------)||||||||||||||(--------------------------------|
-5555555555555555555555555555555555555555555555558888888888888888-|
------------------------------------------------------------------|



L
----------------------------------------------------------------------------------|
----------------------------------------------------------------------------------|
------------------________________------------------------------------------------|
------------------)||||||||||||||(------------------------------------------------|
-99999999999999999999999999999999999999999999999912121212121212121212121212121212-|
----------------------------------------------------------------------------------|

R
----------------------------------------------------------------------------------|
----------------------------------------------------------------------------------|
------------------________________------------------------------------------------|
------------------)||||||||||||||(------------------------------------------------|
-55555555555555555555555555555555555555555555555512121212121212121212121212121212-|
----------------------------------------------------------------------------------|




4:24


L
-------------------------------------------------|
-------------------------------------------------|
-------------------8--7--------------------5--3--|
-------------------x--x--------------------x--x--|
-0--1--0--1--0--1--6--5--0--1--0--1--0--1--3--1--|
-0--1--0--1--0--1--------0--1--0--1--0--1--------|

R
-------------------------------------------------|
-------------------------------------------------|
-------------------------------------------------|
-------------------------------------------------|
-0--1--0--1--0--1--6--5--0--1--0--1--0--1--3--1--|
-0--1--0--1--0--1--6--5--0--1--0--1--0--1--3--1--|


L
-------------------------------------------------|
-------------------------------------------------|
-------------------8--7--------------------5--3--|
-------------------x--x--------------------x--x--|
-0--1--0--1--0--1--6--5--0--1--0--1--0--1--3--1--|
-0--1--0--1--0--1--------0--1--0--1--0--1--------|

R
-------------------------------------------------|
-------------------------------------------------|
-------------------------------------------------|
-------------------------------------------------|
-0--1--0--1--0--1--6--5--0--1--0--1--0--1--3--1--|
-0--1--0--1--0--1--6--5--0--1--0--1--0--1--3--1--|




L
--------------------------------------------------|
--------------------------------------------------|
-14-15-14-15-14-15-20-19-14-15-14-15-14-15-17-15--|
--X--X--X--X--X--X--X--X--X--X--X--X--X--X--X--X--|
-12-13-12-13-12-13-18-17-12-13-12-13-12-13-15-13--|
--------------------------------------------------|
R
-------------------------------------------------|
-------------------------------------------------|
-------------------------------------------------|
-------------------------------------------------|
-0--1--0--1--0--1--6--5--0--1--0--1--0--1--3--1--|
-0--1--0--1--0--1--6--5--0--1--0--1--0--1--3--1--|



L
--------------------------------------------------|
--------------------------------------------------|
-14-15-14-15-14-15-20-19-14-15-14-15-14-15-17-15--|
--X--X--X--X--X--X--X--X--X--X--X--X--X--X--X--X--|
-12-13-12-13-12-13-18-17-12-13-12-13-12-13-15-13--|
--------------------------------------------------|
R
-------------------------------------------------|
-------------------------------------------------|
-------------------------------------------------|
-------------------------------------------------|
-0--1--0--1--0--1--6--5--0--1--0--1--0--1--3--1--|
-0--1--0--1--0--1--6--5--0--1--0--1--0--1--3--1--|




4:42


--------------------------------------------------|
--------------------------------------------------|
--------------------------------------------------|
--------------------------------------------------|
--------------------------------------------------|
--6--1---0-1-1-0-4-4-0-1--6--1---0-1-1-0-1-1-0-1--|


--------------------------------------------------|
--------------------------------------------------|
--------------------------------------------------|
--------------------------------------------------|
--------------------------------------------------|
--6--1---0-1-1-0-4-4-0-1--6--1---0-6-6-0-6-6-0-6--|



--------------------------------------------------|
--------------------------------------------------|
--------------------------------------------------|
--------------------------------------------------|
--------------------------------------------------|
--6--1---0-1-1-0-4-4-0-1--6--1---0-1-1-0-1-1-0-1--|


------------------------------------------------|
------------------------------------------------|
------------------------------------------------|
------------------------------------------------|
-----------------------------------------3-2-1--|
--6--1---0-1-1-0-4-4-0-1--6--1---0-1-1-0-3-2-1--|
                                         * * *




Добавлено: 28.08.2014
Другие материалы по этой песне:

Страница создана 28.08.2014
http://primanota.ru/slipknot/sarcastrophe-chords.htm
Привет, Гость.
Предлагаем пройти революционный курс по гитаре.
Подарок от PrimaNota.Ru, забирай!