PrimaNota.ru - самый крупный в мире бесплатный архив песенных текстов, аккордов, табулатур и нот


Slayer - Night Rider - таба, видео

Регистрация Запомнить меня
Войти через:  Facebook Google Twitter Vk Yandex Mail.ru

Slayer - Night Rider - таба, видео

Печатать
Просмотров: 154
Band- Slayer
Song- Night Rider

  pick slide
e:--------------------------|-----------------|
B:--------------------------|-----------------|
G:--------------------------|-----------------|
D:-9--12--7--14/------------|-9--12--7--2-----|
A:-7--10--5--12/--X/--------|-7--10--5--0-----|
E:----------------X/--------|--------------X/-|


e:--------------------------------------------|
B:-----------------------------------------7NH|
G:---------------------------------------7NH--|
D:---2AH-2---2--3-5-3----2---5--7------7NH----|
A:-0-------0----------0------3--5--5Nh--------|
E:--------------------------------------------|


e:----------------------------5p3p2---------------------|
B:----------------------------------5p3p2---------------|
G:----------------------------------------4p3p2---------|
D:---2-2----2--3-5-3-----2--5-------------------4p3p2p0-|
A:-0-----0------------0-----3---------------------------|
E:------------------------------------------------------|


e:------------------------------------------------------|
B:--------------------------------------------------7NH-|
G:---4--4-----4--5--7--5-----4------------------7NH-----|
D:---2--2-----2--3--5--3-----2---5--7-------7NH---------|
A:-0-------0--------------0------3--5--5NH--------------|
E:------------------------------------------------------|

                                           bend slowly
e:---------------------------------------------------|
B:---------------------------------------------------|
G:---4--4-----4--5--7--5-----4------------3b---------|
D:---2--2-----2--3--5--3-----2---5--7----------------|
A:-0-------0--------------0------3--5----------------|
E:---------------------------------------------------|


verse play it several times
e:---------------------------------------------------|
B:---------------------------------------------------|
G:------------------------------------------7--------|
D:---9--9--4--7--9-9-----7--5-5-5--7-7----7----------|
A:---7--7--2--5--7-7-----5--3-3-3--5-5--5------------|
E:-0------------------0------------------------------|


play this 3 times
e:----------------------------------|
B:----------------------------------|
G:-----------------------4-2--------|
D:-2-2---5-2---2--2-2---------5--4--|
A:-----5-----5--------5-------------|
E:----------------------------------|


same as the verse
e:---------------------------------------------------|
B:---------------------------------------------------|
G:------------------------------------------7--------|
D:---9--9--4--7--9-9-----7--5-5-5--7-7----7----------|
A:---7--7--2--5--7-7-----5--3-3-3--5-5--5------------|
E:-0------------------0------------------------------|


                           Drum solo
e:--------------|--------------------------------------|
B:--------------|--------------------------------------|
G:--------------|--------------------------------------|
D:-9--(9)--(9)--|--------------------------------------|
A:-7--(7)--(7)--|--------------------------------------|
E:-0------------|--------------------------------------|


solo            trill
e:-------------------------------------------------------------------|
B:-18b-(18b)---18b~~~---18b~-(18b)p15--------------------------------|
G:-------------------------------------12-14-15--13-14-16--14-15-17--|
D:-------------------------------------------------------------------|
A:-------------------------------------------------------------------|
E:-------------------------------------------------------------------|


e:----------------------------------------------------------|
B:----------------------------------------------------------|
G:-17b--17b---12-13-15-13-12--------------------------------|
D:---------------------------15-12-13-15-13-12--------------|
A:---------------------------------------------15-13-12~~~/-|
E:----------------------------------------------------------|


e:------------------------------------------------------|
B:------------------------------------------------------|
G:-2AH-(2ah)-2-3-5-3-2---2-3---2-3-5-3-2---3-2----------|
D:---------------------5-----5-----------5-----5-3-2~~~-|
A:------------------------------------------------------|
E:------------------------------------------------------|


  repeat   repeat repeat
e:-------|-------|-------|------------|
B:-------|-------|-------|--------18b-|
G:-5p0h5-|-7p0h7-|-9p0h9-|-10b--------|
D:-------|-------|-------|------------|
A:-------|-------|-------|------------|
E:-------|-------|-------|------------|


  play this 2 times
e:----------------------------------|
B:----------------------------------|
G:-----------------------4-2--------|
D:-2-2---5-2---2--2-2---------5--4--|
A:-----5-----5--------5-------------|
E:----------------------------------|


same as the verse
e:---------------------------------------------------|
B:---------------------------------------------------|
G:------------------------------------------7--------|
D:---9--9--4--7--9-9-----7--5-5-5--7-7----7----------|
A:---7--7--2--5--7-7-----5--3-3-3--5-5--5------------|
E:-0------------------0------------------------------|


  play this 4 times
e:----------------------------------|
B:----------------------------------|
G:-----------------------4-2--------|
D:-2-2---5-2---2--2-2---------5--4--|
A:-----5-----5--------5-------------|
E:----------------------------------|


                  pick slide
e:--------------------------|--------------------------------------|
B:--------------------------|--------------------------------------|
G:--------------------------|--------------------------------------|
D:-9--12--7--14/------------|-9--12--7--2--2-----------------------|
A:-7--10--5--12/--X/--------|-7--10--5--0--0h3p0h3p0h3p0h3p0h3p0etc|
E:----------------X/--------|--------------------------------------|


e:--------------------------|
B:--------------------------|
G:--------------------------|
D:-2------------------------|
A:-0------------------------|
E:--------------------------|
Добавлено: 27.04.2012
Другие материалы по этой песне:
  • Аккорды и текст

Страница создана 27.04.2012
http://primanota.ru/slayer/night-rider-chords.htm
Привет, Гость.
Предлагаем пройти революционный курс по гитаре.
Подарок от PrimaNota.Ru, забирай!