PrimaNota.ru - самый крупный в мире бесплатный архив песенных текстов, аккордов, табулатур и нот


Skrillex - Make It Burn Dem - таба, видео

Регистрация Запомнить меня
Войти через:  Facebook Google Twitter Vk Yandex Mail.ru

Skrillex - Make It Burn Dem - таба, видео

Печатать
Просмотров: 331
-----------------------------------------------------------------
           Make it Bun Dem - Skrillex and Damien Marley =D
-----------------------------------------------------------------
TABBED BY   Brandon97s
From the single Make It Burn Dem
Tuning: Drop D
This is my first tab so it may not be perfect
Part 1: "Turn up the bass, turn the bass (0:14 -0:40, 2:04 - 2:30)"
E|---------------------------------|
B|---------------------------------|
G|---------------------------------|
D|-3--3-3---3--3-3---3--3-3--1--5-3|
A|-3--3-3---3--3-3---3--3-3--1--5-3|
D|-3--3-3---3--3-3---3--3-3--1--5-3|
Part 2 "We a make a fire make it bun dem"
E|-----------------------------------------------------------------|
B|-----------------------------------------------------------------|
G|-----------------2-----------------------------------------------|
D|-6-6-6-6-6-7-6-4-2-----------------------------------------------|
A|-4-4-4-4-4-5-4-2-0-5---------------------------------------------|
D|-------------------3---------------------------------------------|

Part 3 instrumental solo thing (0:41 - 1:06)
E|-----------------------------------------------------------------|
B|-----------------------------------------------------------------|
G|-----------------------------------------------------------------|
D|-11-11-11-11-11-11-11-11-11-11-11-11-9--12--11-------------------|
A|-9--9--9--9--9--9--9--9--9--9--9--9--7--10--9--------------------|
D|-----------------------------------------------------------------|

E|-----------------------------------------------------------------|
B|-----------------------------------------------------------------|
G|-----------------------------------------------------------------|
D|-6-6-6-6-6-6-6-6--6-6-6--6--4--7--6------------------------------|
A|-4-4-4-4-4-4-4-4--4-4-4--4--2--5--4------------------------------|
D|-----------------------------------------------------------------|

Second instrumental thing (2:31 to 3:00)
E|-----------------------------------------------------------------|
B|-----------------------------------------------------------------|
G|-----------------------------------------------------------------|
D|----------------------------12b----------------------------------|
A|--9-9-9--9--9-9-9--9--9-9-9----10-9-9-9--9-----------------------|
D|-----------------------------------------------------------------|

E|-----------------------------------------------------------------|
B|-----------------------------------------------------------------|
G|-----------------------------------------------------------------|
D|-----------------------------------------------------------------|
A|--------------------------------------12-------------------------|
D|-10-10-10--10--10-10-10--10--10-10-10----11-10-10-10-10----------|

Part 5 (rapping bit, 1:10 - 1:36, 3:00 to end)
E|-----------------------------------------------------------------|
B|-----------------------------------------------------------------|
G|-----------------------------------------------------------------|
D|--3-3-3-3-3-3-3-3--3-3-3-3-/-15-15-15-15-------------------------|
A|--3-3-3-3-3-3-3-3--3-3-3-3-/-15-15-15-15-------------------------|
D|--3-3-3-3-3-3-3-3--3-3-3-3-/-15-15-15-15-------------------------|

As there are no other tabs I tabbed this from the bass tab plz rate and comment
Добавлено: 01.02.2014
Другие материалы по этой песне:
  • Аккорды и текст

Страница создана 01.02.2014
http://primanota.ru/skrillex/make-it-burn-dem-chords.htm
Привет, Гость.
Предлагаем пройти революционный курс по гитаре.
Подарок от PrimaNota.Ru, забирай!