PrimaNota.ru - самый крупный в мире бесплатный архив песенных текстов, аккордов, табулатур и нот


Skin - Purple - текст песни, бас-таба, видео

Регистрация Запомнить меня
Войти через:  Facebook Google Twitter Vk Yandex Mail.ru

Skin - Purple - текст песни, бас-таба, видео

Печатать
Просмотров: 91
-------------------------------------------------------------------------------
                             PURPLE by Skin
-------------------------------------------------------------------------------
Tabbed by: efimfidrya
E-mail: efim.fidrya@gmail.com

Tuning: Standard

Intro & First Verse
G|------------------------|------------------------|------------------------|------------------------| 
D|------------------------|------------------------|------------------------|------------------------| X 2 
A|7-7-7-7-7-7-7-7-7-7-7-7-|7-7-7-7-7-7-7-7-7-7-7-7-|7-7-7-7-7-7-7-7-7-7-7-7-|7-7-7-7-7-7-7-7-7-7-7-7-|
E|------------------------|------------------------|------------------------|------------------------|

G|------------------------|------------------------|------------------------|------------------------|
D|7-7-7-7-7-7-7-7-7-7-7-7-|7-7-7-7-7-7-7-7-7-7-7-7-|------------------------|------------------------|
A|------------------------|------------------------|7-7-7-7-7-7-7-7-7-7-7-7-|7-7-7-7-7-7-7-7-7-7-7-7-|
E|------------------------|------------------------|------------------------|------------------------|

G|------------------------|------------------------|------------------------|------------------------| 
D|------------------------|------------------------|------------------------|------------------------| 
A|7-7-7-7-7-7-7-7-7-7-7-7-|7-7-7-7-7-7-7-7-7-7-7-7-|7-7-7-7-7-7-7-7-7-7-7-7-|7-7-7-7-7-7-7-7-7-7-7-7-|
E|------------------------|------------------------|------------------------|------------------------|

G|------------------------|------------------------|------------------------|------------------------|
D|7-7-7-7-7-7-7-7-7-7-7-7-|7-7-7-7-7-7-7-7-7-7-7-7-|------------------------|------------------------|
A|------------------------|------------------------|7-7-7-7-7-7-7-7-7-7-7-7-|7-7-7-7-7-7-7-7-7-7-7-7-|
E|------------------------|------------------------|------------------------|------------------------|

Chorus
G|------------------------|------------------------|------------------------|------------------------|
D|------------------------|------------------------|------------------------|------------------------|
A|4-4-4-4-4-4-4-4-4-4-4-4-|2-2-2-2-2-2-2-2-2-2-2-2-|0-0-0-0-0-0-0-0-0-0-0-0-|9-9-9-9-9-9-9-9-9-9-9-9-|
E|------------------------|------------------------|------------------------|------------------------|

G|------------------------|------------------------|------------------------|------------------------|
D|------------------------|------------------------|------------------------|------------------------|
A|4-4-4-4-4-4-4-4-4-4-4-4-|2-2-2-2-2-2-2-2-2-2-2-2-|0-0-0-0-0-0-0-0-0-0-0-0-|0-0-0-0-0-0-0-0-0-0-0-0-|
E|------------------------|------------------------|------------------------|------------------------|

Second Verse
G|------------------------|------------------------|------------------------|------------------------| 
D|------------------------|------------------------|------------------------|------------------------| X 2 
A|7-7-7-7-7-7-7-7-7-7-7-7-|7-7-7-7-7-7-7-7-7-7-7-7-|7-7-7-7-7-7-7-7-7-7-7-7-|7-7-7-7-7-7-7-7-7-7-7-7-|
E|------------------------|------------------------|------------------------|------------------------|

G|------------------------|------------------------|------------------------|------------------------|
D|7-7-7-7-7-7-7-7-7-7-7-7-|7-7-7-7-7-7-7-7-7-7-7-7-|------------------------|------------------------|
A|------------------------|------------------------|7-7-7-7-7-7-7-7-7-7-7-7-|7-7-7-7-7-7-7-7-7-7-7-7-|
E|------------------------|------------------------|------------------------|------------------------|

G|------------------------|------------------------|------------------------|------------------------| 
D|------------------------|------------------------|------------------------|------------------------| 
A|7-7-7-7-7-7-7-7-7-7-7-7-|7-7-7-7-7-7-7-7-7-7-7-7-|7-7-7-7-7-7-7-7-7-7-7-7-|7-7-7-7-7-7-7-7-7-7-7-7-|
E|------------------------|------------------------|------------------------|------------------------|

G|------------------------|------------------------|------------------------|------------------------|
D|7-7-7-7-7-7-7-7-7-7-7-7-|7-7-7-7-7-7-7-7-7-7-7-7-|------------------------|------------------------|
A|------------------------|------------------------|7-7-7-7-7-7-7-7-7-7-7-7-|7-7-7-7-7-7-7-7-7-7-7-7-|
E|------------------------|------------------------|------------------------|------------------------|

Chorus
G|------------------------|------------------------|------------------------|------------------------|
D|------------------------|------------------------|------------------------|------------------------|
A|4-4-4-4-4-4-4-4-4-4-4-4-|2-2-2-2-2-2-2-2-2-2-2-2-|0-0-0-0-0-0-0-0-0-0-0-0-|9-9-9-9-9-9-9-9-9-9-9-9-|
E|------------------------|------------------------|------------------------|------------------------|

G|------------------------|------------------------|------------------------|------------------------|
D|------------------------|------------------------|------------------------|------------------------|
A|4-4-4-4-4-4-4-4-4-4-4-4-|2-2-2-2-2-2-2-2-2-2-2-2-|0-0-0-0-0-0-0-0-0-0-0-0-|0-0-0-0-0-0-0-0-0-0-0-0-|
E|------------------------|------------------------|------------------------|------------------------|

G|------------------------|------------------------|------------------------|------------------------|
D|------------------------|------------------------|------------------------|------------------------|
A|4-4-4-4-4-4-4-4-4-4-4-4-|2-2-2-2-2-2-2-2-2-2-2-2-|0-0-0-0-0-0-0-0-0-0-0-0-|9-9-9-9-9-9-9-9-9-9-9-9-|
E|------------------------|------------------------|------------------------|------------------------|

G|------------------------|------------------------|------------------------|------------------------|
D|------------------------|------------------------|------------------------|------------------------|
A|4-4-4-4-4-4-4-4-4-4-4-4-|2-2-2-2-2-2-2-2-2-2-2-2-|0-0-0-0-0-0-0-0-0-0-0-0-|0-0-0-0-0-0-0-0-0-0-0-0-|
E|------------------------|------------------------|------------------------|------------------------|

Bridge
G|------------------------|------------------------|------------------------|------------------------|
D|------------------------|------------------------|------------------------|------------------------|
A|0-0-0-0-0-0-0-0-0-0-0-0-|0-0-0-0-0-0-0-0-0-0-0-0-|7-7-7-7-7-7-7-7-7-7-7-7-|7-7-7-7-7-7-7-7-7-7-7-7-|
E|------------------------|------------------------|------------------------|------------------------|

G|------------------------|------------------------|------------------------|------------------------|
D|------------------------|------------------------|------------------------|------------------------|
A|0-0-0-0-0-0-0-0-0-0-0-0-|0-0-0-0-0-0-0-0-0-0-0-0-|2-2-2-2-2-2-2-2-2-2-2-2-|2-2-2-2-2-2-2-2-2-2-2-2-|
E|------------------------|------------------------|------------------------|------------------------|

G|------------------------|------------------------|------------------------|------------------------|
D|------------------------|------------------------|------------------------|------------------------|
A|2-2-2-2-2-2-2-2-2-2-2-2-|2-2-2-2-2-2-2-2-2-2-2-2-|2-2-2-2-2-2-2-2-2-2-2-2-|2-2-2-2-2-2-2-2-2-2-2-2/|
E|------------------------|------------------------|------------------------|------------------------|

G|------------------------------------|------------------------------------|
D|------------------------------------|------------------------------------|
A|14-14-14-14-14-14-14-14-14-14-14-14-|14-14-14-14-14-14-14-14-14-14-14-14-|
E|------------------------------------|------------------------------------|

Chorus
G|------------------------|------------------------|------------------------|------------------------|
D|------------------------|------------------------|------------------------|------------------------|
A|4-4-4-4-4-4-4-4-4-4-4-4-|2-2-2-2-2-2-2-2-2-2-2-2-|0-0-0-0-0-0-0-0-0-0-0-0-|9-9-9-9-9-9-9-9-9-9-9-9-|
E|------------------------|------------------------|------------------------|------------------------|

G|------------------------|------------------------|------------------------|------------------------|
D|------------------------|------------------------|------------------------|------------------------|
A|4-4-4-4-4-4-4-4-4-4-4-4-|2-2-2-2-2-2-2-2-2-2-2-2-|0-0-0-0-0-0-0-0-0-0-0-0-|0-0-0-0-0-0-0-0-0-0-0-0-|
E|------------------------|------------------------|------------------------|------------------------|

G|------------------------|------------------------|------------------------|------------------------|
D|------------------------|------------------------|------------------------|------------------------|
A|4-4-4-4-4-4-4-4-4-4-4-4-|2-2-2-2-2-2-2-2-2-2-2-2-|0-0-0-0-0-0-0-0-0-0-0-0-|------------------------|
E|------------------------|------------------------|------------------------|2-2-2-2-2-2-2-2-2-2-2-2-|

G|------------------------|------------------------|------------------------|------------------------|
D|------------------------|------------------------|------------------------|------------------------|
A|4-4-4-4-4-4-4-4-4-4-4-4-|2-2-2-2-2-2-2-2-2-2-2-2-|0-0-0-0-0-0-0-0-0-0-0-0-|0-0-0-0-0-0-0-0-0-0-0-0-|
E|------------------------|------------------------|------------------------|------------------------|

G|------------------------|------------------------|------------------------|------------------------| 
D|------------------------|------------------------|------------------------|------------------------| 
A|7-7-7-7-7-7-7-7-7-7-7-7-|7-7-7-7-7-7-7-7-7-7-7-7-|7-7-7-7-7-7-7-7-7-7-7-7-|7-7-7-7-7-7-7-7-7-7-7-7-|
E|------------------------|------------------------|------------------------|------------------------|

G|------------------------|------------------------|------------------------|------------------------| 
D|------------------------|------------------------|------------------------|------------------------| 
A|7-7-7-7-7-7-7-7-7-7-7-7-|7-7-7-7-7-7-7-7-7-7-7-7-|7~----------------------|------------------------|
E|------------------------|------------------------|------------------------|------------------------|

| /  slide up
| \  slide down
| h  hammer-on
| p  pull-off
| ~  vibrato
| +  harmonic
| x  Mute note
===============================================================================
Добавлено: 01.01.2016
Другие материалы по этой песне:
  • Аккорды и текст

Страница создана 24.02.2012
http://primanota.ru/skin/purple-chords.htm
Привет, Гость.
Предлагаем пройти революционный курс по гитаре.
Подарок от PrimaNota.Ru, забирай!