PrimaNota.ru - самый крупный в мире бесплатный архив песенных текстов, аккордов, табулатур и нот


Skillet - Awake And Alive - аккорды и текст, таба, бас-таба, драм-таба, видео

Регистрация Запомнить меня
Войти через:  Facebook Google Twitter Vk Yandex Mail.ru

Skillet - Awake And Alive - аккорды и текст, таба, бас-таба, драм-таба, видео

Печатать
Просмотров: 3647
Awake And Alive
Skillet
I think this are the chords, please rate!



Chords used:

   G#    F#   Bm    C#m   D#m   Cm    Fm     F     G     A
e|--4--|--2--|--2--|--4--|--6--|--3--|--1--|--1--|--3--|--5--|
B|--4--|--2--|--3--|--5--|--7--|--4--|--1--|--1--|--3--|--5--|
G|--5--|--3--|--4--|--6--|--8--|--5--|--1--|--2--|--4--|--6--|
D|--6--|--4--|--4--|--6--|--8--|--5--|--3--|--3--|--5--|--7--|
A|--6--|--4--|--2--|--4--|--6--|--3--|--3--|--3--|--5--|--7--|
E|--4--|--2--|-----|-----|-----|-----|--1--|--1--|--3--|--5--|


Intro:

G#, F#, G#; G#, F#, Bm, C#m, D#m x2
             
       
Verse 1:
F#
I'm at war with the world and they
Try to pull me in the dark
I struggle to find my faith
As I'm slippin' from your arms
It's getting harder to stay awake
                A
And my strength is fading fast
                 F#    G#     A
You breathe into me at last

Chorus:
    F#       A
I'm awake! I'm alive! 
     F#             G#
Now I know what I believe inside
F#         A
Now it's my time
F#                   G#
I'll do what I want 'cause this is my life
Bm    C#m
Here, right now!
D#m 
I'll stand my ground and never back down
F#  
I know what I believe inside
G#             A
I'm awake and I'm alive! 

Verse 2:
F#
I'm at war with the word 'cause I
Ain't never gonna sell my soul
I've already made up my mind
No matter what I can't be bought or sold
When my faith is getting weak
                         A
And I feel like giving in
                F#    G#   A
You breathe into me again

Chorus:

Bridge:                     \
Waking up Waking up          |
e|-1--1--xx-1-1-xx-------|   |
B|-1--1--xx-1-1-xx-------|   |--X4
G|-2--2--xx-2-2-xx-------|   |
D|-3--3--xx-3-3-xx-------|   |
A|-3--3--xx-3-3-xx-3s5s3-|   |
E|-1--1--xx-1-1-xx-------|  /

F#          G#                          A
  In the dark, I can feel you in my sleep
                         F#       G#   A
In your arms I feel you breathe into me
                   F#       
Forever hold this heart that I will give to you
G#                 A
Forever I will live for you! 

[Guitar Solo]
E:-------------------------------------------------------------------------|
B:-------------------------------------------------------------------------|
G:-------------------------------------------9----------9-11-12-11-9-11----|
D:-------5-7-9------12---10-9-10^9---------------9-10-12-------------------|
A:--5-7-9-------9-10---------------12^10^9-10------------------------------|
E:-------------------------------------------------------------------------|
                                                 PM---------------------

E:------------12-14-15-14-12---------------------12-14-15-17-15-14---------|
B:----------12---------------------------------12--------------------------|
G:--11-12-14-----------------16-12-11--11-12-14-------------------16-12-11-|
D:-------------------------------------------------------------------------|
A:-------------------------------------------------------------------------|
E:-------------------------------------------------------------------------|

E:-------------------------------------------------------------17-19-20-19-|
B:-------------------------------------------------------17-19-20----------|
G:---11-12-14---11-12-14---12-14-16---14-16-17---16-17-19------------------|
D:-------------------------------------------------------------------------|
A:-------------------------------------------------------------------------|
E:-------------------------------------------------------------------------|

Final Chorus (Same chorus chords)

I'm awake! I'm alive! 
Now I know what I believe inside
Now it's my time
I'll do what I want 'cause this is my life
Here, right now! 
I'll stand my ground and never back down
I know what I believe inside
I'm awake and I'm alive! 

outro(like bridge)

Waking up Waking up, Waking up Waking up
Waking up Waking up, Waking up Waking up
Добавлено: 17.07.2013
Другие материалы по этой песне:

Страница создана 29.04.2012
http://primanota.ru/skillet/awake-and-alive-chords.htm
Привет, Гость.
Предлагаем пройти революционный курс по гитаре.
Подарок от PrimaNota.Ru, забирай!