PrimaNota.ru - самый крупный в мире бесплатный архив песенных текстов, аккордов, табулатур и нот


Skillet - Angels Fall Down - аккорды и текст, таба, видео

Регистрация Запомнить меня
Войти через:  Facebook Google Twitter Vk Yandex Mail.ru

Skillet - Angels Fall Down - аккорды и текст, таба, видео

Печатать
Просмотров: 548
Уроки эстрадного вокала в Санкт-Петербурге
Angels Fall Down
Skillet
This is my first song..
 
 Intro: Gsus2, Dsus2 (4x)
 
 Verse 1:
  Gsus2           Dsus2
 I saw angels fall down
   Gsus2          Dsus2
 At the glory of the Lord
    Bm      Dsus2       A     G
 And as I raise my hands I see

 Verse 2:
  Gsus2           Dsus2
 I saw angels fall down
   Gsus2          Dsus2
 At the glory of the Lord
    Bm     Dsus2       A      G
 And as I hit the ground I see

 Chorus 1:
    Asus2-Bm   Gsus2
 And I fall down
   G          Dsus2    Gsus2
 Afraid and shaking here
    Asus2-Bm   Gsus2
 And I fall down
  G                 Dsus      Gsus2
 I'm perfectly safe right here

 Verse 3:
   Gsus2          Dsus2
 I saw angels fall down
    Gsus2         Dsus2
 At the glory of the Lord
    Bm       Dsus2          Asus2     G
 The hurt and the broken find rest here

 Verse 4:
   Gsus2         Dsus2
 I saw angels fall down
    Gsus2         Dsus2
 At the beauty of the Lord
   Bm       Dsus2        Asus2      G
 And as I kneeled I cried to know him

 Chorus 2:
   Asus2-Bm    Gsus2
 And I fall down
   G         Dsus2    Gsus2
 Afraid and shaking here
    Asus2-Bm  Gsus2
 And I fall down
  G              Dsus2    Gsus2
 I'm perfectly safe in here
  G              Dsus2    Gsus2
 I'm perfectly safe in here
  G              Dsus2    Gsus2
 I'm perfectly safe in here
 
 Solo: 
 Part 1:
E------------------------------------------------------------|
B------------------------------------------------------------|
G-----7-----7h9---------7-----7h9-----------9-----9s11-------| 
D--0-----0---------------------------------------------------|
A---------------------0----0-------------7-----7-------------|
E------------------------------------------------------------|

E-------------------------|
B-------------------------|
G------12------11--12s7---| 
D-------------------------| (4x)
A--10------10-------------| 
E-------------------------| 

 Part 2:
E------------------------------------------------------------|
B------------------------------------------------------------|
G-----7-----7h9--7-6--6h7p6---6------------9-----9s11-9------|
D--0-----0------------------7-----7s9------------------------|
A-------------------------------0-------7-----7--------------|
E------------------------------------------------------------|

E-------------------------|
B-------------------------|
G------12------11--12s7---|
D-------------------------| (2x)
A--10------10-------------|
E-------------------------|
 
 Part 3:
E-----------------------------------------------|
B---7---5---7s15--14-15---10---12---3--3s15-----|
G-----------------------------------------------|
D-----------------------------------------------|
A-----------------------------------------------|
E-----------------------------------------------|

E---------------------21-------------------------------------|
B---7---5---7s15--14------10--12--3--3s15--------------------|
G------------------------------------------------------------|
D------------------------------------------------------------|
A------------------------------------------------------------|
E------------------------------------------------------------|
 
Yeah........ (self inprovisation) 
Добавлено: 17.01.2014
Другие материалы по этой песне:
  • Аккорды и текст

Страница создана 01.06.2012
http://primanota.ru/skillet/angels-fall-down-chords.htm
Привет, Гость.
Предлагаем пройти революционный курс по гитаре.
Подарок от PrimaNota.Ru, забирай!