PrimaNota.ru - самый крупный в мире бесплатный архив песенных текстов, аккордов, табулатур и нот


Siouxsie And The Banshees - Hong Kong Garden - текст песни, таба, бас-таба, драм-таба, видео

Регистрация Запомнить меня
Войти через:  Facebook Google Twitter Vk Yandex Mail.ru

Siouxsie And The Banshees - Hong Kong Garden - текст песни, таба, бас-таба, драм-таба, видео

Печатать
Просмотров: 292
Уроки эстрадного вокала в Санкт-Петербурге
Авторы: Siouxsie Sioux, Kenny Morris, John McKay, Steven Severin

Jason McCombe: elementjmc39@hotmail.com

_____________________________________________________________________


E -121212—-15—-15--15--12—-17--15--12--12—-12---------------------|
B -121212--15--15--15--12—-17--15--12--12—-12---------------------|
G ----------------------------------------------------------------|
D ----------------------------------------------------------------|
A ----------------------------------------------------------------|
E ----------------------------------------------------------------|


E -1212--10--13--13--13--10--15--13--12--10-----------------------|
B -1212--10--13--13--13--10--15--13--12--10-----------------------|
G ----------------------------------------------------------------|
D ----------------------------------------------------------------|
A ----------------------------------------------------------------|
E ----------------------------------------------------------------|

_____________________________________________________________________

E -121212-12-12--141414-14-14--121212-12-12-12-12-----------------|
B -131313-13-13--151515-15-15--121212-12-12-12-12-----------------|
G -121212-12-12--141414-14-14-------------------------------------|
D ----------------------------------------------------------------|
A ----------------------------------------------------------------|
E ----------------------------------------------------------------|

E -121212-12-12--141414-14-14--12-12-15-15-12---------------------|
B -131313-13-13--151515-15-15--12-12-15-15-12---------------------|
G -121212-12-12--141414-14-14-------------------------------------|
D ----------------------------------------------------------------|
A ----------------------------------------------------------------|
E ----------------------------------------------------------------|

E -121212-12-12--141414-14-14--12-12-15-15-12---------------------|
B -131313-13-13--151515-15-15--12-12-15-15-12---------------------|
G -121212-12-12--141414-14-14-------------------------------------|
D ----------------------------------------------------------------|
A ----------------------------------------------------------------|
E ----------------------------------------------------------------|

E -10-10--13--13--13--10--15--13--12--10--------------------------|
B -10-10--13--13--13--10--15--13--12--10--------------------------|
G ----------------------------------------------------------------|
D ----------------------------------------------------------------|
A ----------------------------------------------------------------|
E ----------------------------------------------------------------|

_____________________________________________________________________
Добавлено: 30.05.2012
Другие материалы по этой песне:
  • Аккорды и текст

Страница создана 14.03.2012
http://primanota.ru/siouxsie-and-the-banshees/hong-kong-garden-chords.htm
Привет, Гость.
Предлагаем пройти революционный курс по гитаре.
Подарок от PrimaNota.Ru, забирай!