PrimaNota.ru - самый крупный в мире бесплатный архив песенных текстов, аккордов, табулатур и нот


Синяя Птица - Снег и лёд - аккорды и текст, видео

Регистрация Запомнить меня
Войти через:  Facebook Google Twitter Vk Yandex Mail.ru

Синяя Птица - Снег и лёд - аккорды и текст, видео

Печатать
Просмотров: 1355
Снег и лёд
Синяя Птица
Вступление:

......Am...........F............Dm........E.......Am..........E
G-8>9--7-5---4>5--4------4>5--4------------4-7-5-4-5-----
D----------------------------7----------------7-6-7------------------

......Am..........F..............Dm.............E....Am.......E
G-8>9--7-5---4>5--4-------7>10--9-7--5-4-5--------------
D-----------------------------7----------------------------7----------

Am.........................................................Am/G
Рано выпал снег в поле с проседью,
F...............G................C..........A7
Разлучил меня с рыжей осенью
............Dm................................Am..............F 
До утра снег, снег, снег, а в душе лёд, лёд, лёд,
..............Dm...............E.............Am......................A7 
Нежность губ, тихий взгляд унесла с собою осень...
Dm.....................Am..............F         
Снег, снег, снег,   лёд, лёд, лёд...
.............Dm................E.......Am  
Тихий взгляд, звук шагов, прощай!

Проигрыш: 
......Am..........F.............. Dm.............E....Am......E
G-8>9--7-5---4>5--4-------7>10--9-7--5-4-5--------------
D-----------------------------7----------------------------7----------

Фонари в ночи тени бросили,
Не найти зимой тропку к осени
На висках снег, снег, снег, в памяти силуэт,
Нежность губ, тихий взгляд закружил в метели этой...
Снег, снег, снег, 
Вот уже много лет...
Тихий взгляд, звук шагов, прощай!

Проигрыш: Am   F  G  C  A7    Dm  Am  F 
Dm  E  Am  A7    Dm  Am  F  Dm  E 

H------------------4>5-----------------------------4>5---------------4>5-
G--4>5-4-5-7----------7-5-4-5----4>5-4-5-7-------7-5-4-5-5----------
D--------------------------------------------------------------------------------
A-------------------------------------7------------------------------------------

H-5>6-5---------------4>5--------------------------------------------------
G------------7-4>5-7-5-------7-5--4-5-----4-5----7-5-4-5-7-5-7>9-----
D----------------------------------------------------------------------------------
A---------------------------------------------8-------7---------------------------

E----------10-----8-----8-----8-7--------8----7----7----8---------------------
H--5>6--------------6-----6---------------------------------10-----------------
G--------------10--------------------8>9----9----9----9-----------------------
D-----------------------------------------------------------------------------------

E--8---5--------------------------------
H--5-----8--5--------------------------
G---------------7-5-7-5-7-7>9------
D----------------------------------------

Переход на 1 тон (на 2 лада) выше (Hm)

Hm..........................................................Hm/A
Рано выпал снег в поле с проседью,
G....................A.................D..........H7
Разлучил меня с рыжей осенью
................Em......................................Hm..........G....G/F# 
До утра снег, снег, снег, а в душе лёд, лёд, лёд,
 ..................Em...................F#............Hm.........................H7
 Нежность губ, тихий взгляд унесла с собою осень...
Em.........................Hm...........G......G/F#
Снег, снег, снег,  лёд, лёд, лёд,
 Em              F# 
 Осень прошла...
Em.......................................Hm...........G......G/F#   
Снег, снег, снег, а в душе лёд, лёд, лёд,
....................Em.................F#..........Hm..........................H7
Нежность губ, тихий взгляд унесла с собою осень...
Em........................Hm...........G......G/F#         
Снег, снег, снег, лёд, лёд, лёд,
Em...............F#..........Hm6
Осень прошла... Прощай!
Добавлено: 12.07.2015
Другие материалы по этой песне:
  • Аккорды и текст

Страница создана 12.07.2015
http://primanota.ru/sinyaya-ptica/sneg-i-led-chords.htm
Привет, Гость.
Предлагаем пройти революционный курс по гитаре.
Подарок от PrimaNota.Ru, забирай!