PrimaNota.ru - самый крупный в мире бесплатный архив песенных текстов, аккордов, табулатур и нот


Simple Plan - Untitled Live - таба, бас-таба, видео

Регистрация Запомнить меня
Войти через:  Facebook Google Twitter Vk Yandex Mail.ru

Simple Plan - Untitled Live - таба, бас-таба, видео

Печатать
Просмотров: 239
-------------------------------------------------------------------------------
                     UNTITLED (live version) - Simple Plan
-------------------------------------------------------------------------------
Tabbed by: Thinzar
Email: supersaiyanfan@yahoo.com

Tuning: Standard


Intro (picking): E x4


Verse (picking): 
C#m
I open my eyes
                                     E
I try to see but I'm blinded by the white light
         C#m
I can't remember how
         C#m
I can't remember why
      E             B
I'm lying here tonight
      A               B
And I can't stand the pain
      C#m            E
And I can't make it go away
     A               B
No I can't stand the pain


Chorus (picking):
                           E
How could this happen to me?
               C#m
I made my mistakes
                       A
I've got no where to run
               B
The night goes on
                 E
As I'm fading away
                    C#m
I'm sick of this life
                A
I just wanna scream
B                         E 
How could this happen to me?


C#m
Everybody's screaming
                                 E
I try to make a sound but no one hears me
     C#m
I'm slipping off the edge

I'm hanging by a thread
   E                      B
I wanna start this over again
   A          B         C#m       E
So I try to hold onto a time when nothing mattered
    A          B       
And I can't explain what happened
    C#m       E                          A
And I can't erase the things that I've done
      B
No I can't


Chorus (picking):
How could this happen to me?
I made my mistakes
I've got no where to run
The night goes on
As I'm fading away
I'm sick of this life
I just wanna scream
How could this happen to me?


B (palm mute with distortion)


Solo (with distortion):
e--------------------------------------------------4h5p4--------------------|
A-----------------------------------7b(9)-5h7p5~--------5~---/7-/7—7h5p7~/9-|
D------------------------------4-6--------------------------4---------------|
G--------4b(6)-2-2/4~--2-4-4/6----------------------------------------------|
B-0~-4/6--------------------------------------------------------------------|
E---------------------------------------------------------------------------|


Instrumental: C#m (picking x3, palm mute with distortion x2; continue the rest of the song with distortion)

Chorus:
I made my mistakes
I've got no where to run
The night goes on
As I'm fading away
I'm sick of this life
I just wanna scream
How could this happen to me?


Ending Solo:
e--12-12-12-11-11--------12-12-12-11-11----------|
A----------------12-12------------------12-12----|
D----------------------9----------------------9--|
G------------------------------------------------|
B------------------------------------------------|
E------------------------------------------------|

e--12-12-12-11-11--------12-11----12-11----12-11-|
A----------------12-12---------12-------12-------|
D----------------------9-------------------------|
G------------------------------------------------|
B------------------------------------------------|
E------------------------------------------------|
                         How could this happen to me?

e--12-12-12-11-11--------12-12-12-11-11----------|
A----------------12-12------------------12-12----|
D----------------------9----------------------9--|
G------------------------------------------------|
B------------------------------------------------|
E------------------------------------------------|

e--12-12-12-11-11--------12-11----12-11----12-11-—12~--|
A----------------12-12---------12-------12-------------|
D----------------------9-------------------------------|
G------------------------------------------------------|
B------------------------------------------------------|
E------------------------------------------------------|
                         How could this happen to me?

(End on E)



| /  slide up
| \  slide down
| h  hammer-on
| p  pull-off
| ~  vibrato
| +  harmonic
| x  Mute note
===============================================================================
Добавлено: 03.07.2012
Другие материалы по этой песне:
  • Аккорды и текст

Страница создана 20.05.2012
http://primanota.ru/simple-plan/untitled-live-chords.htm
Привет, Гость.
Предлагаем пройти революционный курс по гитаре.
Подарок от PrimaNota.Ru, забирай!