PrimaNota.ru - самый крупный в мире бесплатный архив песенных текстов, аккордов, табулатур и нот


Simple Plan - Whem Im Gone - бас-таба, видео

Регистрация Запомнить меня
Войти через:  Facebook Google Twitter Vk Yandex Mail.ru

Simple Plan - Whem Im Gone - бас-таба, видео

Печатать
Просмотров: 187
Okay just a mod of the first version bit differently layed.


---Intro---

G-----------------|
D-----------------|
A-----------------|
E----3/---------\-|

---Verse---


I look around me
But all I seem to see


-------------------|-------------------|
-------------------|-------------------|
-------------------|-6----6----6----6--|
-3----3----3----3--|-------------------|


Its people going nowhere
Expecting sympathy

G-------------------|-------------------|
D-------------------|-------------------|
A-------------------|-3----3----3----3--|
E-6----6----6----6--|-------------------|


It's like we're going through the emotions
Of the scripted destiny


G-------------3---5---3---------|-------------------|
D---------5-----------------5---|-------------------|
A-----5-------------------------|-6----6----6----6--|
E-3-----------------------------|-------------------|

Tell me where's our inspiration
If life won't wait
I guess it's up to me

G-------------------|--------|---------|
D-------------------|--------|---------|
A-------------------|-3---3--|-3-3-3-3-|
E-6----6----6----6--|--------|---------|

---Chorus---

Whoahh
No we're not gonna waste another moment in this town
Whoahh
We wont come back, the world its coming out
Whoahh
Leave the past in the past gonna find the future
                                   _
G-------------------------------|   |
D-------------------------------|   |
A-6---6---6---6-----------------|   |
E-----------------6---6---6---6-|   |
                                     >x3
G-------------------------------|   |
D-------------------------------|   |
A-------------------------------|   |
E-3---3---3---3---1---1---1---1-|  _|

And misery loves company
Well so long
You'll miss me when I'm gone

G---------------------------------------------------------------|
D---------------------------------------------------------------|
A-6---6---6---6---6---6---6---6---3---3---3---3---5---5---5---5-|
E---------------------------------------------------------------|

---Post-Chorus---

You're gonna miss me when I'm gone

G---------------------------|
D---------------------------|
A-------6-6---3-3---5-5-5-5-|
E-3-3-----------------------|

G---------------------------|
D---------------------------|
A-------6-6---3-3---5-5-5-5-|
E-3-3-----------------------|

---Verse---

Procrastination running circles in my head

-------------------|-------------------|
-------------------|-------------------|
-------------------|-6----6----6----6--|
-3----3----3----3--|-------------------|

While you sit there contemplating you'll wind up left for dead
(left for dead)

G-------------------|-------------------|
D-------------------|-------------------|
A-------------------|-3----3----3----3--|
E-6----6----6----6--|-------------------|

Life it's what happens
While you're busy making your excuses

G-------------3---5---3---------|-------------------|
D---------5-----------------5---|-------------------|
A-----5-------------------------|-6----6----6----6--|
E-3-----------------------------|-------------------|

Another day, another casualty
But that won't happen to me

G-------------------|--------|---------|
D-------------------|--------|---------|
A-------------------|-3---3--|-3-3-3-3-|
E-6----6----6----6--|--------|---------|

                                   _
---Chorus---

Whoahh
No we're not gonna waste another moment in this town
Whoahh
We wont come back, the world its coming out
Whoahh
Leave the past in the past gonna find the future
                                   _
G-------------------------------|   |
D-------------------------------|   |
A-6---6---6---6-----------------|   |
E-----------------6---6---6---6-|   |
                                     >x3
G-------------------------------|   |
D-------------------------------|   |
A-------------------------------|   |
E-3---3---3---3---1---1---1---1-|  _|

And misery loves company
Well so long
You'll miss me when I'm gone

G---------------------------------------------------------------|
D---------------------------------------------------------------|
A-6---6---6---6---6---6---6---6---3---3---3---3---5---5---5---5-|
E---------------------------------------------------------------|

---Post-Chorus---

You're gonna miss me when I'm gone
You're gonna miss me when I'm goooone

G---------------------------|
D---------------------------|
A-------6-6---3-3---5-5-5-5-|
E-3-3-----------------------|

G---------------------------|
D---------------------------|
A-------6-6---3-3---5-5-5-5-|
E-3-3-----------------------|

---Bridge---

When I'm gooone

G---------------------------|
D---------------------------|
A---------------------------|
E---------------------------|

G---------------------------|
D---------------------------|
A---------------------------|
E---------------------------|

Let's go…!
Won't look back
When I say goodbye
We're gonna leave this hole behind me
Gonna take what's mine tonight

G-----------------------------------------------------------------|
D-----------------------------------------------------------------|
A-----------------6-6-6-6-6-6-6-6-----------------3-3-3-3-3-3-3-3-|
E-3-3-3-3-3-3-3-3-----------------6-6-6-6-6-6-6-6-----------------|

‘cause every wasted day
Because of wasted chance
You're gonna wake up feeling sorry
‘cause life won't wait
I guess it's up to you

G-----------------------------------------------------------------|
D-----------------------------------------------------------------|
A-----------------6-6-6-6-6-6-6-6-----------------3-3-3-3-3-------|
E-3-3-3-3-3-3-3-3-----------------6-6-6-6-6-6-6-6-----------------|


---Chorus---

Whoahh
No we're not gonna waste another moment in this town
Whoahh
We wont come back, the world its coming out
Whoahh
Leave the past in the past gonna find the future
And misery loves company
                                   _
G-------------------------------|   |
D-------------------------------|   |
A-6---6---6---6-----------------|   |
E-----------------6---6---6---6-|   |
                                     >x3
G-------------------------------|   |
D-------------------------------|   |
A-------------------------------|   |
E-3---3---3---3---1---1---1---1-|  _|

Well so long
You'll miss me when I'm gone

G---------------------------------------------------------------|
D---------------------------------------------------------------|
A-6---6---6---6---6---6---6---6---3---3---3---3---5---5---5---5-|
E---------------------------------------------------------------|

Post-Chorus

You're gonna miss me when I'm gone

G---------------------------|
D---------------------------|
A-------6-6---3-3---5-5-5-5-|
E-3-3-----------------------|

You're gonna miss me when I'm gone

G---------------------------|
D---------------------------|
A-------6-6---3-3---5-5-5-5-|
E-3-3-----------------------|

You're gonna miss me when I'm gone

G---------------------------|
D---------------------------|
A-------6-6---3-3---5-5-5-5-|
E-3-3-----------------------|

You're gonna miss me when I'm gone

G---------------------------|
D---------------------------|
A-------6-6---3-3---5-5-5-5-|
E-3-3-----------------------|


Ending

G-------|
D-------|
A-------|
E-3~----|
Добавлено: 16.03.2012
Другие материалы по этой песне:
  • Аккорды и текст

Страница создана 16.03.2012
http://primanota.ru/simple-plan/whem-im-gone-chords.htm
Привет, Гость.
Предлагаем пройти революционный курс по гитаре.
Подарок от PrimaNota.Ru, забирай!