PrimaNota.ru - самый крупный в мире бесплатный архив песенных текстов, аккордов, табулатур и нот


Shiro Sagisu - Going Home - таба, видео

Регистрация Запомнить меня
Войти через:  Facebook Google Twitter Vk Yandex Mail.ru

Shiro Sagisu - Going Home - таба, видео

Печатать
Просмотров: 621
Tabbed by: Graham Choo
Email: da_tweens@yahoo.co.uk

Tuning: Standard

   F       Bb    Am      D7
e|---------------------0-----------------------------------|
B|-5-6-5-6-5-3\1-1---1---4---------------------------------|
G|-5-5-5-5-5-----0-0-----5---------------------------------|
D|-5-7-5-7-5-----2-------4---------------------------------|
A|-8-------------0-------6---------------------------------|
E|---------6-----------------------------------------------| 

           Gm      A       Dm     C#m      Cm     D7/F
e|-----3h5-5-6-5-6-5-----3---------------------------10----|
B|---6-----3-3-3-3-6-6\0---6-----6-5-----5-4-----4-7-------|
G|-5-------3-------6-6\4---5---5---4---4---3---3---8-------|
D|-------------------------7-7-----6-6-----5-5-----7-------|
A|-----------------0-------5-------4-------3-------8-------|
E|---------3-----------------------------------------------|

   Bb              A     Dm         Gaug
e|---------5-6-5-6-5-----5-5-5-6-5h6-5---------------------|
B|-------3---------6-6-8-6-6-6-6-6---5---------------------|
G|-----2-----------6-----7-7---------4---------------------|
D|---3-------------------------------3---------------------|
A|-1---------------0---------------------------------------|
E|-----------------------------------3---------------------|

   Gm              C
e|---------------3---------------3-------------------------|
B|-3-2h3-6-----6-----6---6-----6---------------------------|
G|-------3---3-----3---3-3---3-----------------------------|
D|-------5-5-------------5-5-------------------------------|
A|-----------------------3---------------------------------|
E|-------3-------------------------------------------------|

   F       Bb    Am      D7
e|---------------------0-----------------------------------|
B|-5-6-5-6-5-3\1-1---1---4---------------------------------|
G|-5-5-5-5-5-----0-0-----5---------------------------------|
D|-5-7-5-7-5-----2-------4---------------------------------|
A|-8-------------0-------6---------------------------------|
E|---------6-----------------------------------------------|

   Gm      A       Dm  C#  C   D7/F
e|-----3h5-5-6-5-6-5-----3---------------10----------------|
B|---6-----3-3-3-3-6-6\0---6---6---6---7-------------------|
G|-5-------3-------6-6\4---5-5-6-6-3-3-8-------------------|
D|-------------------------7-7-6-6-5-5-7-------------------|
A|-----------------0-------5---4---3---8-------------------|
E|---------3-----------------------------------------------|

   Bb              A     Dm     Gaug
e|---------5-6-5-6-5-----5-6-5-6-5-------------------------|
B|-------3---------6-6-8-6-6-6-6-5-------------------------|
G|-----2-----------6-----7-------4-------------------------|
D|---3---------------------------3-------------------------|
A|-1---------------0---------------------------------------|
E|-------------------------------3-------------------------|

   Gm              
e|---------------3-------3-------3-------------------------|
B|-3-2h3-6-----6-------6-------6-------6-------------------|
G|-------3---3-------3-------3-------3---------------------|
D|-------5-5-------5-------5-------5-----------------------|
A|---------------------------------------------------------|
E|-------3-------------------------------------------------|

   Gm      C      B/C     F#/C
e|---------------------------8-----------------------------|
B|-3-----3-5-----5-6-----6-7-------------------------------|
G|-3---3---5---5---7---7---6-------------------------------|
D|-3-3-----5-5-----8-8-----8-------------------------------|
A|---------3-----------------------------------------------|
E|-3---------------8-------8-------------------------------|

   Bbm            Eb      C7/Eb
e|-------6-------------6-----------------------------------|
B|-6-8-9---6-----6-8-9---6-5-------------------------------|
G|-6-6-6---6---6-6-6-6---6-6-------------------------------|
D|-6-------6-6---6-------6-5-------------------------------|
A|---------------6-------6-6-------------------------------|
E|-6-------6-----------------------------------------------|

  G#dim              Fm         Baug
e|---------3-4-6\3-3-3-----3-1-----------------------------|
B|-4-----4-----------1---1-------9-------------------------|
G|-5---5-------------1-1---------8-------------------------|
D|-5-5---------------------------7-------------------------|
A|---------------------------------------------------------|
E|-4-----------------1---------1/7-------------------------|

   Bbm            Eb            Gm              C      A7/C
e|---------------6---------8-6-5-----5-3-----3-5-----5---5-|
B|-6-----6-6-8-9---6-----6-----3---3-------3---3---3---2---|
G|-6---6---6-6-6---6---6-------3-3-------3-----3-3-----3---|
D|-6-6-----6-------6-6---------------------------------2---|
A|-----------------6---------------------------3-------3---|
E|-6-------6-------------------3---------------------------|

   F       Bb    Am      D7
e|---------------------0-----------------------------------|
B|-5-6-5-6-5-3\1-1---1---4---------------------------------|
G|-5-5-5-5-5-----0-0-----5---------------------------------|
D|-5-7-5-7-5-----2-------4---------------------------------|
A|-8-------------0-------6---------------------------------|
E|---------6-----------------------------------------------|

   Gm      A       Dm     C#m      Cm     D7/F
e|-----3h5-5-6-5-6-5-----3---------------------------10----|
B|---6-----3-3-3-3-6-6\0---6-----6-5-----5-4-----4-7-------|
G|-5-------3-------6-6\4---5---5---4---4---3---3---8-------|
D|-------------------------7-7-----6-6-----5-5-----7-------|
A|-----------------0-------5-------4-------3-------8-------|
E|---------3-----------------------------------------------|

   Bb              A     Dm    Gaug
e|---------5-6-5-6-5-----5-6-5-6-5-------------------------|
B|-------3---------6-6-8-6-6-6-6-5-------------------------|
G|-----2-----------6-----7-------4-------------------------|
D|---3---------------------------3-------------------------|
A|-1---------------0---------------------------------------|
E|-------------------------------3-------------------------|

   Gm              C
e|---------------3---------------3-------------------------|
B|-3-2h3-6-----6-----6---6-----6-----6---------------------|
G|-------3---3-----3---3-3---3-----3-----------------------|
D|-------5-5-------------5-5-------------------------------|
A|-----------------------3---------------------------------|
E|-------3-------------------------------------------------|

  C#dim            Eb
e|-4-------4-------6-----8-6-------------------------------|
B|-6-----6-----6---6---6-----9-8-6-------------------------|
G|-5---5-----5---5-6-6-------------------------------------|
D|-6-6-----------------------------------------------------|
A|-4---------------6---------------------------------------|
E|---------------------------------------------------------|

   F
e|-0-----------5-8-13--------------------------------------|
B|-1-----1-6-8-----10--------------------------------------|
G|-2---2-----------10--------------------------------------|
D|-3-2-----------------------------------------------------|
A|---------------------------------------------------------|
E|---------------------------------------------------------|

| /  slide up
| \  slide down
| h  hammer-on
| p  pull-off
| ~  vibrato
| +  harmonic
| x  Mute note
Добавлено: 13.10.2013
Другие материалы по этой песне:

Страница создана 11.03.2012
http://primanota.ru/shiro-sagisu/going-home-chords.htm
Привет, Гость.
Предлагаем пройти революционный курс по гитаре.
Подарок от PrimaNota.Ru, забирай!