PrimaNota.ru - самый крупный в мире бесплатный архив песенных текстов, аккордов, табулатур и нот


Shinedown - Fly From The Inside - аккорды и текст, таба, бас-таба, видео

Регистрация Запомнить меня
Войти через:  Facebook Google Twitter Vk Yandex Mail.ru

Shinedown - Fly From The Inside - аккорды и текст, таба, бас-таба, видео

Печатать
Просмотров: 429
Fly From The Inside
Shinedown
      Shinedown - Fly From The Inside
      Submitted By: ELROY GERONIMO
      cREATED BY :ArmedWithAGuitar
      EMail: armedwithaguitar@hotmail.com
      This is a pretty easy tune to pick up.  Drop to D and start wailin.
Make
      sure and listen to the song for the syncopation during the bridge.

      Riff 1
      e--------------------------------------------------------------
      B--------------------------------------------------------------
      G-----11-11-11-11-11-11/12-12-12-12-12/14----------------------
      D-----0--0--0--0--0--0--0--0--0--0--0--0--8-8-8-8-8-7-7-7-7-7-3
      A-----0--0--0--0--0--0--0--0--0--0--0--0--8-8-8-8-8-7-7-7-7-7-3
      D-----------------------------------------8-8-8-8-8-7-7-7-7-7-3
            (--------------Clean--------------) (-----Distorted-----)

      Riff 2 (Distorted)
      e------------------------------------
      B------------------------------------
      G------------------------------------
      D-----0-0-8-7-3-0-3-5-0-0-8-7-3-0-3-3
      A-----0-0-8-7-3-0-3-5-0-0-8-7-3-0-3-3
      D-----0-0-8-7-3-0-3-5-0-0-8-7-3-0-3-3

      Verse (Clean)
      e------------------------------------
      B------------------------------------
      G-----4-4-4-4-4-4-4-4-5-5-5-5-5-5-5-5
      D-----4-4-4-4-4-4-4-4-5-5-5-5-5-5-5-5
      A-----2-2-2-2-2-2-2-2-3-3-3-3-3-3-3-3
      D-----2-2-2-2-2-2-2-2-3-3-3-3-3-3-3-3

      Pre-Chorus (Distorted)
     
e----------------------------------------------------------------------
     
B----------------------------------------------------------------------
     
G----------------------------------------------------------------------
     
D---5-5-5-5-5-5-5-5-8-8-8-8-8-8-8-8-5-5-5-5-5-5-5-5-8-8-8-8-10-10-10-10
     
A---5-5-5-5-5-5-5-5-8-8-8-8-8-8-8-8-5-5-5-5-5-5-5-5-8-8-8-8-10-10-10-10
     
D---5-5-5-5-5-5-5-5-8-8-8-8-8-8-8-8-5-5-5-5-5-5-5-5-8-8-8-8-10-10-10-10

      Chorus (Distorted)
     
e--------------------------------------------------------------------
     
B--------------------------------------------------------------------
     
G-------------------------------------3-3-3-3-3-3-3-3----------------
     
D---0-0-12-12-0-0-0-0-3-3-3-3-3-3-3-3-5-5-5-5-5-5-5-5-5-5-5-5-5-5-5-5
     
A---0-0-12-12-0-0-0-0-3-3-3-3-3-3-3-3-5-5-5-5-5-5-5-5-5-5-5-5-5-5-5-5
     
D---0-0-12-12-0-0-0-0-3-3-3-3-3-3-3-3-----------------5-5-5-5-5-5-5-5
       Optional> Guitar 2 During Chorus (Distorted)
     
e--------------------------------------------------------------------
     
B--------------------------------------------------------------------
     
G---------------------10----9----------------------------------------
     
D---------------------------------10---------------------------------
     
A--------------------------------------------------------------------
     
D--------------------------------------------------------------------

      Bridge (Distorted)
      e----------------------------------
      B----------------------------------
      G----------------------------------
      D---0-0-15-15-0-0-15-15-15-15-15-15
      A---0-0-15-15-0-0-15-15-15-15-15-15
      D---0-0-15-15-0-0-15-15-15-15-15-15

      Song Order:
      Riff 1      x4
      Riff 2      x4
      Verse       x4
      Pre-Chorus  x1
      Chorus      x2
      Riff 2      x2
      Verse       x4
      Pre-Chorus  x1
      Chorus      x2
      Bridge      x8
      Riff 1      x2
      Chorus      x4
      Riff 2      x2

________________________________________________________________________________
     
Добавлено: 24.09.2013
Другие материалы по этой песне:

Страница создана 12.04.2012
http://primanota.ru/shinedown/fly-from-the-inside-chords.htm
Привет, Гость.
Предлагаем пройти революционный курс по гитаре.
Подарок от PrimaNota.Ru, забирай!