PrimaNota.ru - самый крупный в мире бесплатный архив песенных текстов, аккордов, табулатур и нот


Shinedown - I Own You - таба, видео

Регистрация Запомнить меня
Войти через:  Facebook Google Twitter Vk Yandex Mail.ru

Shinedown - I Own You - таба, видео

Печатать
Просмотров: 312
Уроки эстрадного вокала в Санкт-Петербурге
Song: I Own You
Artist: Shinedown
Album: The Sound of Madness (2008)

Ok this is the first tab I've ever written. and i'm almost positive it sounds 100%
I tabbed this becuase it's my second favorite song off of Shinedowns new album (next to the
track) and seeing as it's been over a year and no one has tabbed it yet I figured I 
do it. It's a fun song to play with some catchy, yet simple to play riffs.

Any corrections? Email me: SeanVT390@hotmail.com

~Guitars~
Lead: Drop C (C G C F A D)
Rythm: Drop C (C G C F A D)

~Strumming~
As far as most people are concerned strumming pattern isn't exactly the most important
to  tab but i'm fairly certain that all the chord progressions in this song are fast &
downstrokes

~Legend~
h: Hammer on

p: Pull off

b(#):Bend to fret indicated in parenthesis

/: Slide Up

~: Vibrato

PM...: Palm mute

X: kill sound/string


Intro/Chorus x2 (Lead)

D|---------------------------------------------------|
A|---------------------------------------------------|
F|---14-14-14-14-12-14--14-14-14-14-12-14-15-15-15-15|
C|---X--X--X--X--X--X---X--X--X--X--X--X--X--X--X--X-|
G|--12-12-12-12-10-12--12-12-12-12-10-12-13-13-13-13-|
C|---------------------------------------------------|

e|---------------------------------------------------|
B|---------------------------------------------------|
G|--15-15-19-19-19-19-19-19-19-19--------------------|
D|--X--X--X--X--X--X--X--X--X--X---------------------|
A|-13-13-17-17-17-17-17-17-17-17---------------------|
E|---------------------------------------------------|

Intro/Chorus x2 (Rythm)

e|-----------------------------|------|
B|-----------------------------|------|
G|--------------3--------------|------|
D|-0------3-----1-x8---5-------|--5---|
A|-0--x8--3-x8--1------5-x8----|--5---|
E|-0------3------------5-------|--5---|
                                  ^ let ring

Verse 1 x2 (Lead)

e|--------------------------------------------------|
B|--------------------------------------------------|
G|--7-7-x-7-----------------------------------------|
D|--5-5-x-5-----------------------------------------|
A|--5-5-x-5-----------------------------------------|
E|----------7-7-7-7-6-6-6-6-------------------------|

Verse 2 x2 (Lead)

e|--------------------------------------------------|
B|--------------------------------------------------|
G|--------------------------------------------------|
D|-7-7-7-7-7-7-7-7-8-8-8-8-8-8-8--------------------|
A|-8-8-8-8-8-8-8-8-8-8-8-8-8-8-8--------------------|
E|-7-7-7-7-7-7-7-7-8-8-8-8-8-8-8--------------------|


~Play Verse 1 x2~

Pre Chorus

e|--------------------------------------------------|
B|--------------------------------------------------|
G|-------------------------------5-5-5-5-5-5-5-5----|
D|-7-7-7-7-7-7-7-7-8-8-8-8-8-8-8-3-3-3-3-3-3-3-3----|
A|-8-8-8-8-8-8-8-8-8-8-8-8-8-8-8-3-3-3-3-3-3-3-3----|
E|-7-7-7-7-7-7-7-7-8-8-8-8-8-8-8--------------------|


e|---------------------------------------------------|
B|---------------------------------------------------|
G|-5-x-5-5-5-x-5-x-5---------------------------------|
D|-5-x-5-5-5-x-5-x-5---------------------------------|
A|-3-x-3-3-3-x-3-x-3---------------------------------|
E|---------------------------------------------------|

~Play Intro/Chorus x3~

~Play Verse 1 x2~

~Play Verse 2 x2~

~Play Verse 1 x2~

~Play Pre Chorus~

~Play Intro/Chorus x3~


Solo (Lead)
  REPEAT 7 TIMES
e|--------------------------------------------------|
B|-13h15-15-15-15-15-15-15-15-15--------------------|
G|--------------------------------------------------|
D|--------------------------------------------------|
A|--------------------------------------------------|
E|--------------------------------------------------|
   8th time play this
e|--------------------------------------------------|
B|--13h15-15-15-15-15-15-15-15-15-13-13-13----------|
G|-----------------------------------------15-15-15-|
D|--------------------------------------------------|
A|--------------------------------------------------|
E|--------------------------------------------------|
   Repeat 4 times
e|--------------------------------------------------|
B|---15-15-13-15b(16)r15--15p13---------------------|
G|--------------------------------------------------|
D|--------------------------------------------------|
A|--------------------------------------------------|
E|--------------------------------------------------|
   4th time play this after the 15p13
e|--------------------------------------------------|
B|---13-15-13-13-13-13~~~~~-------------------------|
G|--------------------------------------------------|
D|--------------------------------------------------|
A|--------------------------------------------------|
E|--------------------------------------------------|
   Play 4 times
e|--------------------------------------------------|
B|---15-15-13-15b(16)r15--15p13---------------------|
G|--------------------------------------------------|
D|--------------------------------------------------|
A|--------------------------------------------------|
E|--------------------------------------------------|
   4th time play this after the 15p13
e|--------------------------------------------------|
B|---13-15-13-13-13-13~~~~~--------- /15~~~~--------|
G|--------------------------------------------------|
D|--------------------------------------------------|
A|--------------------------------------------------|
E|--------------------------------------------------|


Solo (Rythm)
   Repeat 4 times
e|--------------------------------------------------|
B|--------------------------------------------------|
G|---------------8------7---------------------------|
D|-5------8------6--x8--5--x8-----------------------|
A|-5--x8--8--x8--6------5---------------------------|
E|-5------8-----------------------------------------|


Break (Rythm)

e|--------------------------------------------------|
B|--------------------------------------------------|
G|--------------------------------------------------|
D|---5----/8----/13---------------------------------|
A|---5----/8----/13---------------------------------|
E|---5----/8----/13---------------------------------|

e|--------------------------------------------------|
B|--------------------------------------------------|
G|---7-7-7-7-7-7-7-7-7-7-7-7-7-7-7-7----------------|
D|---5-5-5-5-5-5-5-5-5-5-5-5-5-5-5-5----------------|
A|---5-5-5-5-5-5-5-5-5-5-5-5-5-5-5-5----------------|
E|--------------------------------------------------|
   PM................................
            slowly un-mute

~Play Intro/Chorus x3~


Outro (Lead)
  Repeat untill end of song     End on
e|-------------------------------|----------|
B|-13h15-15-15-15-15-15-15-15----|--/15~~~~-|
G|-------------------------------|----------|
D|-------------------------------|----------|
A|-------------------------------|----------|
E|-------------------------------|----------|

Outro (Rythm)
 repeat 2 times               End on
e|-----------------------------|------|
B|-----------------------------|------|
G|--------------3--------------|------|
D|-0------3-----1-x8---5-------|--5---|
A|-0--x8--3-x8--1------5-x8----|--5---|
E|-0------3------------5-------|--5---|
Добавлено: 19.05.2012
Другие материалы по этой песне:

Страница создана 05.03.2012
http://primanota.ru/shinedown/i-own-you-chords.htm
Привет, Гость.
Предлагаем пройти революционный курс по гитаре.
Подарок от PrimaNota.Ru, забирай!