PrimaNota.ru - самый крупный в мире бесплатный архив песенных текстов, аккордов, табулатур и нот


Shawn Lee - Happiness - таба, видео

Регистрация Запомнить меня
Войти через:  Facebook Google Twitter Vk Yandex Mail.ru

Shawn Lee - Happiness - таба, видео

Печатать
Просмотров: 93
Artist: Shawn Lee
Song  : Happiness
Album : Monkey Boy

Transcribed on April 15th, 2001.
by Christophe Girard (ch_girard@yahoo.fr)


* Intro:
     B7sus2      A#m7/5+     A6         G#sus4   G#         
E||-----------|-----------|-----------|--------------------||
B||--7--------|--7--------|--7--------|--4--------4--------||
G||--6--------|--6--------|--6--------|--6--------5--------||
D||--7--------|--6--------|--5--------|--6--------6--------||(x2)
A||-----------|-----------|--X--------|--X--------X--------||
E||--7--------|--6--------|--5--------|--4--------4--------||


* Verse 1 ("Happiness is a drug..."):
     B7sus2      A#m7/5+     A6         G#sus4   G#         
E||-----------|-----------|-----------|--------------------||
B||--7--------|--7--------|--7--------|--4--------4--------||
G||--6--------|--6--------|--6--------|--6--------5--------||
D||--7--------|--6--------|--5--------|--6--------6--------||(x2)
A||-----------|-----------|--X--------|--X--------X--------||
E||--7--------|--6--------|--5--------|--4--------4--------||


* Pre-chorus ("..a sooooon"):
     C#7M   C#m7   B7M    Bm7    A7M    Am7    G7M
E||-------------|-------------|-------------|--------------||
B||--9------9---|--7------7---|--5------5---|--3-----------||
G||--10-----9---|--8------7---|--6------5---|--4-----------||
D||--10-----9---|--8------7---|--6------5---|--4-----------||
A||-------------|-------------|-------------|--------------||
E||--9------9---|--7------7---|--5------5---|--3-----------||


* Chorus ("Take me a blow..."):
     Bm7   C7M     Bm7   C7M     Bm7   C7M     Bm7   Am7   
E||-------------|-------------|-------------|--------------|
B||--7-----8----|--7-----8----|--7-----8----|--7-----5-----|
G||--7-----9----|--7-----9----|--7-----9----|--7-----5-----|
D||--7-----9----|--7-----9----|--7-----9----|--7-----5-----|
A||-------------|-------------|-------------|--------------|
E||--7-----8----|--7-----8----|--7-----8----|--7-----5-----|

("Summer has gone...")
     Bm7   C7M     Bm7   C7M     Bm7   C7M     Bm7
E||-------------|-------------|-------------|--------------||
B||--7-----8----|--7-----8----|--7-----8----|--7-----------||
G||--7-----9----|--7-----9----|--7-----9----|--7-----------||
D||--7-----9----|--7-----9----|--7-----9----|--7-----------||
A||-------------|-------------|-------------|--------------||
E||--7-----8----|--7-----8----|--7-----8----|--7-----------||


* Verse 2 ("Happiness is a pet..."):
     B7sus2      A#m7/5+     A6         G#sus4   G#         
E||-----------|-----------|-----------|--------------------||
B||--7--------|--7--------|--7--------|--4--------4--------||
G||--6--------|--6--------|--6--------|--6--------5--------||
D||--7--------|--6--------|--5--------|--6--------6--------||(x2)
A||-----------|-----------|--X--------|--X--------X--------||
E||--7--------|--6--------|--5--------|--4--------4--------||


* Pre-chorus ("...looooong"):
     C#7M   C#m7   B7M    Bm7    A7M    Am7    G7M
E||-------------|-------------|-------------|--------------||
B||--9------9---|--7------7---|--5------5---|--3-----------||
G||--10-----9---|--8------7---|--6------5---|--4-----------||
D||--10-----9---|--8------7---|--6------5---|--4-----------||
A||-------------|-------------|-------------|--------------||
E||--9------9---|--7------7---|--5------5---|--3-----------||


* Chorus ("Take me a blow..."):
     Bm7   C7M     Bm7   C7M     Bm7   C7M     Bm7   Am7   
E||-------------|-------------|-------------|--------------|
B||--7-----8----|--7-----8----|--7-----8----|--7-----5-----|
G||--7-----9----|--7-----9----|--7-----9----|--7-----5-----|
D||--7-----9----|--7-----9----|--7-----9----|--7-----5-----|
A||-------------|-------------|-------------|--------------|
E||--7-----8----|--7-----8----|--7-----8----|--7-----5-----|

("Summer has gone...")
     Bm7   C7M     Bm7   C7M     Bm7   C7M
E||-------------|-------------|-------------|
B||--7-----8----|--7-----8----|--7-----8----|
G||--7-----9----|--7-----9----|--7-----9----|
D||--7-----9----|--7-----9----|--7-----9----|
A||-------------|-------------|-------------|
E||--7-----8----|--7-----8----|--7-----8----|

     Bm7           Am7           C#m7          Dm7    C#m7   
E||-------------|-------------|-------------|--------------|
B||--7----------|--5----------|--9----------|--10-----9----|
G||--7----------|--5----------|--9----------|--10-----9----|
D||--7----------|--5----------|--9----------|--10-----9----|
A||-------------|-------------|-------------|--------------|
E||--7----------|--5----------|--9----------|--10-----9----|

     Bm7           Am7           E7M           D#7M  D7M      C#7M
E||-------------|-------------|-------------|--------------|-------------=
B||--7----------|--5----------|--12---------|--11----10----|--9----------=
G||--7----------|--5----------|--13---------|--12----11----|--10---------=
D||--7----------|--5----------|--13---------|--12----11----|--10---------=
A||-------------|-------------|-------------|--------------|-------------=
E||--7----------|--5----------|--12---------|--11----10----|--9---9-9-9--=


* Verse 3 ("Happiness is the way..."):
     B7sus2      A#m7/5+     A6         G#sus4   G#         
E||-----------|-----------|-----------|--------------------||
B||--7--------|--7--------|--7--------|--4--------4--------||
G||--6--------|--6--------|--6--------|--6--------5--------||
D||--7--------|--6--------|--5--------|--6--------6--------||(x2)
A||-----------|-----------|--X--------|--X--------X--------||
E||--7--------|--6--------|--5--------|--4--------4--------||


* Pre-chorus ("...looooong"):
     C#7M   C#m7   B7M    Bm7    A7M    Am7    G7M
E||-------------|-------------|-------------|--------------||
B||--9------9---|--7------7---|--5------5---|--3-----------||
G||--10-----9---|--8------7---|--6------5---|--4-----------||
D||--10-----9---|--8------7---|--6------5---|--4-----------||
A||-------------|-------------|-------------|--------------||
E||--9------9---|--7------7---|--5------5---|--3-----------||


* Chorus and outro ("Take me a blow..."):
     Bm7   C7M     Bm7   C7M     Bm7   C7M     Bm7   Am7            Bm7
E||-------------|-------------|-------------|--------------|     = |------||
B||--7-----8----|--7-----8----|--7-----8----|--7-----5-----|     = |--7---||
G||--7-----9----|--7-----9----|--7-----9----|--7-----5-----|     = |--7---||
D||--7-----9----|--7-----9----|--7-----9----|--7-----5-----|(x8) = |--7---||
A||-------------|-------------|-------------|--------------|     = |------||
E||--7-----8----|--7-----8----|--7-----8----|--7-----5-----|     = |--7---||

Comments are welcome !
ch_girard@yahoo.fr

     
Добавлено: 07.11.2013
Другие материалы по этой песне:
  • Аккорды и текст

Страница создана 30.09.2013
http://primanota.ru/shawn-lee/happiness-chords.htm
Привет, Гость.
Предлагаем пройти революционный курс по гитаре.
Подарок от PrimaNota.Ru, забирай!