PrimaNota.ru - самый крупный в мире бесплатный архив песенных текстов, аккордов, табулатур и нот


Shadows - Nights In White Satin - таба, видео

Регистрация Запомнить меня
Войти через:  Facebook Google Twitter Vk Yandex Mail.ru

Shadows - Nights In White Satin - таба, видео

Печатать
Просмотров: 562
The Shadows -  Nights In White Satin

Tabulated by Roj Vincent

Intro

   Em         D        Em      D

E-----------------------------------------------------------------------------|
B-----------0-0-0-----------0-0-0---------------------------------------------|
G--------0---------2------0--------2------------------------------------------|
D------2----------------2-----------------------------------------------------|
A----2----------------2-------------------------------------------------------|
E-----------------------------------------------------------------------------|

     Em      D    Em      D         C       G      F       Em
E----------------------------------------------------------------------------|
B-----0----------0-0-0----------------5-3-1-3-0------------------------------|
G-------2-0-2-2--------2-0-2---------------------2-2-2-0-2-0-----------------|
D-------------------------------------------------------------2--------------|
A----------------------------------------------------------------------------|
E----------------------------------------------------------------------------|

       Em   D       Em     D         C     G      F       Em        A
E----------------------------------------------------------------------------|
B------0-------------0----------------5-3-1-3-0------------------------------|
G--------2-0-2-2-2-----2-0-2---------------------2-2-2-0-2-0------0-2-2------|
D-------------------------------------------------------------2-2------------|
A----------------------------------------------------------------------------|
E----------------------------------------------------------------------------|

         C          Em        D       Em      D
E----------------------------------------------------------------------------|
B----5-5-5-5-7>8-7-5-8-7-5---------------------------------------------------|
G----------------------------------------------------------------------------|
D----------------------------------------------------------------------------|
A----------------------------------------------------------------------------|
E----------------------------------------------------------------------------|

     Em        D    Em       D      C         G      F          Em
E-------------------------------------12-10-8-10-----------------------------|
B-----12-10-8-10-10----12-10-8-10-----------------12-10-10-10-8-10-8---------|
G----------------------------------------------------------------------9-----|
D----------------------------------------------------------------------------|
A----------------------------------------------------------------------------|
E----------------------------------------------------------------------------|

   Em         D      Em      D    C     G           F         Em
E--------------------------------12-10-8>10----------------------------------|
B--12-10-8-10-10---12-10-8->10-----------------12-10-10-10-8-10-8------------|
G------------------------------------------------------------------9---------|
D----------------------------------------------------------------------------|
A----------------------------------------------------------------------------|
E----------------------------------------------------------------------------|

       A          C          Em    D     Em     D   Em  D
E---------------------------------------------------3-2-1---------------------|
B-----------------------------------------------------------------------------|
G-----------------------------------------------------------------------------|
D--------------2-2-2-2-5-4-2-5-4-2--------------------------------------------|
A--------0-0------------------------------------------------------------------|
E---0-3-----------------------------------------------------------------------|

        Em      D             C                     B
E-------12-14-15-14-12-----12-14-12---------------12-11----------------------|
B---12------------------15------------15--13--15-----------------------------|
G----------------------------------------------------------------------------|
D----------------------------------------------------------------------------|
A----------------------------------------------------------------------------|
E----------------------------------------------------------------------------|

     Em       D           C              B      Em         C   Em       c
E----12-14-15-17-15-14-15-17-15-14-12-14-15-14--19-19-19-19--19-19-19-19-----|
B--12------------------------------------------------------17-----------17---|
G---------------------------------------------16------------16------------16-|
D----------------------------------------------------------------------------|
A----------------------------------------------------------------------------|
E----------------------------------------------------------------------------|

        Am             B              Am        B
E--19-17-20-19-17-19-17-20-19-17-20-19-17-20-19-17---------------------------|
B----------------------------------------------------------------------------|
G----------------------------------------------------------------------------|
D----------------------------------------------------------------------------|
A----------------------------------------------------------------------------|
E----------------------------------------------------------------------------|

     Em      D        Em      D      C     G      F       Em
E----------------------------------------------------------------------------|
B----------------------------------------------------------------------------|
G----------------------------------------------------------------------------|
D-------------------------------------2-0--0---------------------------------|
A------2-0---0-0-----2-2-2-0---0----------3---2-0-0-0---0--------------------|
E--0--------3----------------3------------------------3---3-0----------------|

  Em    D    Em       D  C    G     F      Em      A    C       Em      D
E-----------------------0----------------------------------------------------|
B-0---------0-0-0---------3-1-3-0------------------------5-5-5-5-8-7-5-8-7-5-|
G---2-0-2-2-------2-0-2-----------2-2-2-0-2-0----0-2-2-----------------------|
D---------------------------------------------2-2----------------------------|
A----------------------------------------------------------------------------|
E----------------------------------------------------------------------------|


  Em D Em D Em                             A               C
E--3-2-0-3-2-0-----------------------------------------3-2-0-----------------|
B------------------------------------------------------------3-0-------------|
G----------------------------------------------------------------2-----------|
D----------------------------------------------2-2-2-2-------------4-2-0-2---|
A------------------------------------------0-0-------------------------------|
E----------------0-0-0-0-0-0-0-0-0-0-0-0-3-----------------------------------|


    Em     D        Em      D      Em      D     Em    D    Em
E---------15-14-12-14->15-14-12---------------12-14-15-14-12>>>>19-----------|
B---12-10-----------------------------------12-------------------------------|
G-----------------------------------11-12-14---------------------------------|
D--------------------------------14------------------------------------------|
A----------------------------------------------------------------------------|
E----------------------------------------------------------------------------|

Note:  > = slide note up,  < = slide note down

The intro and outro both need some work but the meat of it is there. So have fun. Hank 
it a lot better than me but it's a start. Any improvements would be welcome…………..Enjoy.  RV
Добавлено: 27.07.2012
Другие материалы по этой песне:
  • Аккорды и текст

Страница создана 27.07.2012
http://primanota.ru/shadows/nights-in-white-satin-chords.htm
Привет, Гость.
Предлагаем пройти революционный курс по гитаре.
Подарок от PrimaNota.Ru, забирай!