PrimaNota.ru - самый крупный в мире бесплатный архив песенных текстов, аккордов, табулатур и нот


Shadows - I Want You To Want Me - таба, бас-таба, видео

Регистрация Запомнить меня
Войти через:  Facebook Google Twitter Vk Yandex Mail.ru

Shadows - I Want You To Want Me - таба, бас-таба, видео

Печатать
Просмотров: 72
Intro: |: A  F#m /  E7/ :|

A              D       A                       D        A
Anytime you're feeling low   And you've got no place to go
D            G         A
Come run the miles and I'll be there
   D              G        A   
To take away your worries, take away your cares
         A         E7        F#m    E7          A        F7 E7
'Cos you know, you know, you know I want you to want me.

A              D       A                      D     A
Anytime you're feeling blue, you can see what I can do
D           G         A 
Give me the chance to show you I care
    D              G        A
And take away your sorrows, give a lot to share
         A         E7        F#m    E7          A   
'Cos you know, you know, you know I want you to want me.

E7                            A
Loving you is what I think of thru' the night and day
B7                          D            E7
Wanting you is my obsession only you can show me the way.

A              D       A                       D        A
Anytime you're feeling low   And you've got no place to go
D            G         A
Come run the miles and I'll be there
   D              G        A   
To take away your worries, take away your cares
         A         E7        F#m    E7          A        F7 E7
'Cos you know, you know, you know I want you to want me.

Solo: 
A  F#m /  E7 /  A  F#m /  E7 /
D / G /  A   D / G / A   A  E7  F#m  E7  A

E7                            A
Loving you is what I think of thru' the night and day
B7                          D            E7
Wanting you is my obsession only you can show me the way.

A              D       A                      D     A
Anytime you're feeling blue, you can see what I can do
D           G         A  
Give me the chance to show you I care
    D              G        A  
And take away your sorrows, give a lot to share
         A         E7        F#m    E7          A       F7 E7
'Cos you know, you know, you know I want you to want me

    A         E7        F#m    E7          A       F7 E7
You know, you know, you know I want you to want me
    A         E7        F#m    E7          A       F7 F7 A
You know, you know, you know I want you to want me

Intro:
e|------------------------9------------------------------|
B|-12b14r12-10----10-12--10-10--10-9-10------------------|
G|-------------11-----------11--11-9-11------------------|
D|-------------------------------------------------------| 2x
A|-------------------------------------------------------|
E|-------------------------------------------------------|

Solo:
e|------------------------9------------------------------|
B|-12b14r12-10----10-12--10-10--10-9-10------------------|
G|-------------11-----------11--11-9-11------------------|
D|-------------------------------------------------------| 2x
A|-------------------------------------------------------|
E|-------------------------------------------------------|

e|--------------10--9--9---------------------------------|
B|--9/10--10h12----10-10-12-10---------------------------|
G|-10/11-------------------------------------------------|
D|-------------------------------------------------------| 
A|-------------------------------------------------------|
E|-------------------------------------------------------|

e|--------------------10--9--9---------------------------|
B|--9/10--9/10--10h12----10-10-12-10---------------------|
G|-10/11-10/11-------------------------------------------|
D|-------------------------------------------------------| 
A|-------------------------------------------------------|
E|-------------------------------------------------------|

e|-------------------------------------------------------|
B|------10--10-10/12--12-12/14--10-10/12-12--------------|
G|-9h11--------11/13-----13/14--11-11/13-13--------------|
D|-------------------------------------------------------| 
A|-------------------------------------------------------|
E|-------------------------------------------------------|

e|-------------------------------------------------------|
B|-12b14r12-10----10---10-10---10-10---10----------------|
G|-------------11--9----9--9----9--9----9----------------|
D|-------------------------------------------------------| 
A|-------------------------------------------------------|
E|-------------------------------------------------------|

Transcribed by Texas JG
Добавлено: 25.01.2014
Другие материалы по этой песне:
  • Аккорды и текст

Страница создана 25.01.2014
http://primanota.ru/shadows/i-want-you-to-want-me-chords.htm
Привет, Гость.
Предлагаем пройти революционный курс по гитаре.
Подарок от PrimaNota.Ru, забирай!