PrimaNota.ru - самый крупный в мире бесплатный архив песенных текстов, аккордов, табулатур и нот


Shadows - Bossa Roo - таба, бас-таба, видео

Регистрация Запомнить меня
Войти через:  Facebook Google Twitter Vk Yandex Mail.ru

Shadows - Bossa Roo - таба, бас-таба, видео

Печатать
Просмотров: 182
Уроки эстрадного вокала в Санкт-Петербурге
BOSSA ROO

As recorded by The Shadows
(From the 1965 Album THE SOUND OF THE SHADOWS)

Music by John Rostill & Bruce Welch

Transcribed by Slowhand


Gtr I (E A D G B E) - 'Bruce Welch - Acoustic Guitar'
Gtr II (E A D G B E) - 'Hank Marvin - Electric Guitar'
Gtr III (E A D G B E) - 'Hank Marvin - Electric Guitar'


  Q=166
  Dm7                G                   Dm7
 4/4
  Gtr I
  E E E E E E +Q     E E E E +E  E E E   E E E E E E +Q
|-5-5-5-5-5-5-(5)--|-3-----3-(3)-3-3---|-5-5-5-5-5-5-(5)--|
|-6-6-6-6-6-6-(6)--|-3-----3-(3)-3-3---|-6-6-6-6-6-6-(6)--|
|-5-5-5-5-5-5-(5)--|-4-----4-(4)-4-4---|-5-5-5-5-5-5-(5)--|
|-7-7-7-7-7-7-(7)--|-5-----5-(5)-5-5---|-7-7-7-7-7-7-(7)--|
|-5-5-5-5-5-5-(5)--|-5-----5-(5)-5-5---|-5-5-5-5-5-5-(5)--|
|------------------|-3-----3-(3)-3-3---|------------------|
|
| Gtr II
| E E E E E E +Q     E E E E +Q    Q     E E E E E E +Q
|------------------|-------------------|------------------|
|------------------|-------------------|------------------|
|------------------|-------------------|------------------|
|-5-5-5-5-5-5-(5)--|-------------------|-5-5-5-5-5-5-(5)--|
|------------------|-------------------|------------------|
|------------------|-3-----3-(3)-------|------------------|


  G                   C
  E E E E +E  E E E   E E Q  H      W
|-3-----3-(3)-3-3---|-3-----------|------|
|-3-----3-(3)-3-3---|-5-----------|------|
|-4-----4-(4)-4-4---|-5-----------|------|
|-5-----5-(5)-5-5---|-5-----------|------|
|-5-----5-(5)-5-5---|-3-----------|------|
|-3-----3-(3)-3-3---|-------------|------|
|
| E E E E +Q    Q     W             W
|-------------------|-------------|------|
|-------------------|-------------|------|
|-------------------|-------------|------|
|-------------------|-------------|------|
|-------------------|-------------|------|
|-3-----3-(3)-------|-------------|------|


                         $
                             C                C#°7
  W          W               Q  E E E E Q     Q    E  E E E Q
|----------|-------------||--3--3-3-3-3-3---|-3----3--3-3-3-3---|
|----------|-------------||o-5--5-5-5-5-5---|-2----2--2-2-2-2---|
|----------|-------------||--5--5-5-5-5-5---|-3----3--3-3-3-3---|
|----------|-------------||--5--5-5-5-5-5---|-2----2--2-2-2-2---|
|----------|-------------||o-3--3-3-3-3-3---|-4----4--4-4-4-4---|
|----------|-------------||-----------------|-------------------|
|
| W          H    Q  E E     Q  E E E E E E   E E +H        E E
|----------|-------------||-----------------|-------------------|
|----------|-------------||o----------------|-------------------|
|----------|-------------||-----------2-----|-------------------|
|----------|---------2-3-||--5--5-5-----2-5-|---5-(5)-------2-3-|
|----------|-------------||o----------------|-------------------|
|----------|-------------||-----------------|-------------------|


  Dm                G                  C                  E7
  Q   E E E E Q      Q   E E E E Q     Q  E E  E  E Q     Q    E  E E E Q
|-5---5-5-5-5-5---|--3---3-3-3-3-3---|-3--3-3--3--3-3---|-7----7--7-7-7-7---|
|-6---6-6-6-6-6---|--3---3-3-3-3-3---|-5--5-5--5--5-5---|-9----9--9-9-9-9---|
|-7---7-7-7-7-7---|--4---4-4-4-4-4---|-5--5-5--5--5-5---|-7----7--7-7-7-7---|
|-7---7-7-7-7-7---|--5---5-5-5-5-5---|-5--5-5--5--5-5---|-9----9--9-9-9-9---|
|-5---5-5-5-5-5---|--5---5-5-5-5-5---|-3--3-3--3--3-3---|-7----7--7-7-7-7---|
|-----------------|------------------|------------------|-------------------|
|
| E E E E E E E E   +H       Q   E E   Q  E E +E  E E E   E E +H        E E
|-----------------|------------------|------------------|-------------------|
|-----------------|------------------|------------------|-------------------|
|-----------2-----|------------------|------------------|-------------------|
|-5---5-5-----2-5-|-(5)------------0-|-2--2-2-(2)-3-1-2-|---2-(2)---------0-|
|-----------------|--------------3---|------------------|---------------3---|
|-----------------|------------------|------------------|-------------------|


  Am                 C7                F                Fm
  Q  E E  E  E Q      Q   E E E E Q    Q   E E E E Q    Q   E E E E Q
|-5--5-5--5--5-5---|--3---3-3-3-3-3--|-1---1-1-1-1-1--|-1---1-1-1-1-1--|
|-5--5-5--5--5-5---|--5---5-5-5-5-5--|-1---1-1-1-1-1--|-1---1-1-1-1-1--|
|-5--5-5--5--5-5---|--3---3-3-3-3-3--|-2---2-2-2-2-2--|-1---1-1-1-1-1--|
|-7--7-7--7--7-7---|--5---5-5-5-5-5--|-3---3-3-3-3-3--|-3---3-3-3-3-3--|
|-7--7-7--7--7-7---|--3---3-3-3-3-3--|-3---3-3-3-3-3--|-3---3-3-3-3-3--|
|------------------|-----------------|----------------|----------------|
|
| Q  E E +E  E E E   +H.          Q    H.          Q    H.          Q
|------------------|-----------------|----------------|----------------|
|------------------|-----------------|----------------|----------------|
|------------------|-----------------|----------------|----------------|
|-2--2-2-(2)-3-1-2-|-(2)-------------|----------------|----------------|
|------------------|--------------5--|-3-----------5--|-3-----------5--|
|------------------|-----------------|----------------|----------------|


                                                                  To Coda
  C                 A7                Dm7                G
  Q   E E E E Q      Q   E E E E Q    E E E E E E +Q     E E E E +E  E E E
|-3---3-3-3-3-3---|--5---5-5-5-5-5--|-5-5-5-5-5-5-(5)--|-3-----3-(3)-3-3---|
|-5---5-5-5-5-5---|--5---5-5-5-5-5--|-6-6-6-6-6-6-(6)--|-3-----3-(3)-3-3---|
|-5---5-5-5-5-5---|--6---6-6-6-6-6--|-5-5-5-5-5-5-(5)--|-4-----4-(4)-4-4---|
|-5---5-5-5-5-5---|--5---5-5-5-5-5--|-7-7-7-7-7-7-(7)--|-5-----5-(5)-5-5---|
|-3---3-3-3-3-3---|--7---7-7-7-7-7--|-5-5-5-5-5-5-(5)--|-5-----5-(5)-5-5---|
|-----------------|-----------------|------------------|-3-----3-(3)-3-3---|
|
| Q.    E E E E E   +H       H        E E E E E E +Q     E E E E +Q    Q
|-----------------|-----------------|------------------|-------------------|
|-----------------|-----------------|------------------|-------------------|
|---------------4-|-(4)------2------|------------------|-------------------|
|---------2-5-----|-----------------|-5-5-5-5-5-5-(5)--|-------------------|
|-3-----3---------|-----------------|------------------|-------------------|
|-----------------|-----------------|------------------|-3-----3-(3)-------|


  1.                                      2.
  Dm7                G                     Ebm7
  E E E E E E +Q     E E E E +E  E E E     E E E E E E +Q
|-5-5-5-5-5-5-(5)--|-3-----3-(3)-3-3----||-6-6-6-6-6-6-(6)--|
|-6-6-6-6-6-6-(6)--|-3-----3-(3)-3-3---o||-7-7-7-7-7-7-(7)--|
|-5-5-5-5-5-5-(5)--|-4-----4-(4)-4-4----||-6-6-6-6-6-6-(6)--|
|-7-7-7-7-7-7-(7)--|-5-----5-(5)-5-5----||-8-8-8-8-8-8-(8)--|
|-5-5-5-5-5-5-(5)--|-5-----5-(5)-5-5---o||-6-6-6-6-6-6-(6)--|
|------------------|-3-----3-(3)-3-3----||------------------|
|
| E E E E E E +Q     E E E E +Q    E E     E E E E E E +Q
|------------------|--------------------||------------------|
|------------------|-------------------o||------------------|
|------------------|--------------------||------------------|
|-5-5-5-5-5-5-(5)--|---------------2-3--||-6-6-6-6-6-6-(6)--|
|------------------|-------------------o||------------------|
|------------------|-3-----3-(3)--------||------------------|


  Ab                  Dm7                G
  E E E E +E  E E E   E E E E E E +Q     E E E E +E  E E E
|-4-----4-(4)-4-4---|-5-5-5-5-5-5-(5)--|-3-----3-(3)-3-3---|
|-4-----4-(4)-4-4---|-6-6-6-6-6-6-(6)--|-3-----3-(3)-3-3---|
|-5-----5-(5)-5-5---|-5-5-5-5-5-5-(5)--|-4-----4-(4)-4-4---|
|-6-----6-(6)-6-6---|-7-7-7-7-7-7-(7)--|-5-----5-(5)-5-5---|
|-6-----6-(6)-6-6---|-5-5-5-5-5-5-(5)--|-5-----5-(5)-5-5---|
|-------------------|------------------|-3-----3-(3)-3-3---|
|
| E E E E +Q    Q     E E E E E E +Q     E E E E +E  E Q
|-------------------|------------------|-------------------|
|-------------------|------------------|-------------------|
|-------------------|------------------|-------------------|
|-------------------|-5-5-5-5-5-5-(5)--|-------------------|
|-------------------|------------------|-------------------|
|-4-----4-(4)-------|------------------|-3-----3-(3)-3-5---|


  C                         Dm                   G
  E E Q  H      W            Q   E E  E  E Q     Q      E  E E E  Q
|-3-----------|----------||--5---5-5--5--5-5---|-3------3--3-3-3--3--|
|-5-----------|----------||--6---6-6--6--6-6---|-3------3--3-3-3--3--|
|-5-----------|----------||--7---7-7--7--7-7---|-4------4--4-4-4--4--|
|-5-----------|----------||--7---7-7--7--7-7---|-5------5--5-5-5--5--|
|-3-----------|----------||--5---5-5--5--5-5---|-5------5--5-5-5--5--|
|-------------|----------||--------------------|---------------------|
|
| E E Q  H      W            Q.    E  E  E E E   E  E  +Q    Q    Q
|-------------|----------||--------------------|---------------------|
|-------------|----------||--------------------|---------------------|
|-------------|----------||------------------9-|-------------9---10--|
|-------------|----------||--------9-10-12-----|---12-(12)-----------|
|-3-----------|----------||-12-----------------|---------------------|
|-------------|----------||--------------------|---------------------|


  C                    C#°7
   Q   E E E  E Q        Q   E E E E Q
|--3---3-3-3--3-3----|---3---3-3-3-3-3--|
|--5---5-5-5--5-5----|---2---2-2-2-2-2--|
|--5---5-5-5--5-5----|---3---3-3-3-3-3--|
|--5---5-5-5--5-5----|---2---2-2-2-2-2--|
|--3---3-3-3--3-3----|---4---4-4-4-4-4--|
|--------------------|------------------|
|
|  Q   E E E  E E  E    +H.          Q
|--------------------|------------------|
|-----10-------------|------------------|
|-12-------9-10---12-|-(12)-------------|
|--------------------|------------------|
|--------------------|------------------|
|--------------------|------------------|


  Dm                   G
   Q   E E  E  E Q     Q      E  E E E  Q
|--5---5-5--5--5-5---|-3------3--3-3-3--3---|
|--6---6-6--6--6-6---|-3------3--3-3-3--3---|
|--7---7-7--7--7-7---|-4------4--4-4-4--4---|
|--7---7-7--7--7-7---|-5------5--5-5-5--5---|
|--5---5-5--5--5-5---|-5------5--5-5-5--5---|
|--------------------|----------------------|
|
|  Q.    E  E  E E E   E  E  +Q    E E  E E
|--------------------|----------------------|
|--------------------|----------------------|
|------------------9-|-------------9---12---|
|--------9-10-12-----|---12-(12)------------|
|-12-----------------|----------------------|
|--------------------|----------------------|


  Cmaj7           C
  Q  E E E E Q    Q   E E E E Q
|-3--3-3-3-3-3--|-3---3-3-3-3-3--||
|-5--5-5-5-5-5--|-5---5-5-5-5-5--||
|-4--4-4-4-4-4--|-5---5-5-5-5-5--||
|-5--5-5-5-5-5--|-5---5-5-5-5-5--||
|-3--3-3-3-3-3--|-3---3-3-3-3-3--||
|---------------|----------------||
|
| ~~~~~~~~~~~~~~~~~~~
| W               H.          Q
|---------------|----------------||
|---------------|----------------||
|---------------|----------------||
|-9-------------|-7--------------||
|---------------|----------------||
|---------------|----------------||


  Ebm7                   Ab
   Q   E  E  E  E Q      Q      E  E  E E  Q
|--6---6--6--6--6-6----|-4------4--4--4-4--4--|
|--7---7--7--7--7-7----|-4------4--4--4-4--4--|
|--6---6--6--6--6-6----|-5------5--5--5-5--5--|
|--8---8--8--8--8-8----|-6------6--6--6-6--6--|
|--6---6--6--6--6-6----|-6------6--6--6-6--6--|
|----------------------|----------------------|
|
|  Q.     E  E  E E  E   E  E  +Q     Q    Q
|----------------------|----------------------|
|----------------------|----------------------|
|-------------------10-|-------------10---11--|
|--------10-11-13------|---13-(13)------------|
|-13-------------------|----------------------|
|----------------------|----------------------|


  Db                    D°7
   Q   E E  E  E Q        Q   E E E E Q
|--4---4-4--4--4-4----|---4---4-4-4-4-4--|
|--6---6-6--6--6-6----|---6---6-6-6-6-6--|
|--6---6-6--6--6-6----|---4---4-4-4-4-4--|
|--6---6-6--6--6-6----|---6---6-6-6-6-6--|
|--4---4-4--4--4-4----|---5---5-5-5-5-5--|
|---------------------|------------------|
|
|                   ~~~~~~~~~
|  Q   Q    E  Q    E    +H.          Q
|---------------------|------------------|
|-----11--------------|------------------|
|-13-------10-11---13-|-(13)-------------|
|---------------------|------------------|
|---------------------|------------------|
|---------------------|------------------|


  Ebm7                   Ab
   Q   E  E  E  E Q      Q      E  E E E Q
|--6---6--6--6--6-6----|-4------4--4-4-4-4--||
|--7---7--7--7--7-7----|-4------4--4-4-4-4--||
|--6---6--6--6--6-6----|-5------5--5-5-5-5--||
|--8---8--8--8--8-8----|-6------6--6-6-6-6--||
|--6---6--6--6--6-6----|-6------6--6-6-6-6--||
|----------------------|--------------------||
|
|                           ~~~~~~~
|  Q.     E  E  E E  E   E  E  +H        Q
|----------------------|--------------------||
|----------------------|--------------------||
|-------------------10-|--------------------||
|--------10-11-13------|---13-(13)----------||
|-13-------------------|--------------------||
|----------------------|--------------------||


  Dm                    G
   E  E E E  E  E Q     Q      E  E E E E E
|--5--5-5-5--5--5-5---|-3------3--3-3-3-3-3-||
|--6--6-6-6--6--6-6---|-3------3--3-3-3-3-3-||
|--7--7-7-7--7--7-7---|-4------4--4-4-4-4-4-||
|--7--7-7-7--7--7-7---|-5------5--5-5-5-5-5-||
|--5--5-5-5--5--5-5---|-5------5--5-5-5-5-5-||
|---------------------|---------------------||
|
|  Q.     E  E  E E E   E  E  +Q    H
|---------------------|---------------------||
|---------------------|---------------------||
|-------------------9-|---------------------||
|---------9-10-12-----|---12-(12)-----------||
|-12------------------|---------------------||
|---------------------|---------------------||


  C
  E  E  Q   H          W
|--------------------|-------------------------|
|-5------------------|-------------------------|
|-5------------------|-------------------------|
|-5------------------|-------------------------|
|-3------------------|-------------------------|
|--------------------|-------------------------|
|
| E  E  Q   E  E E E   E  E E  E  S  S E  E E
|------15-----11-----|-8-----------------------|
|---13-----13------8-|---11--------------------|
|--------------------|--------12-11s10-8-------|
|--------------------|-------------------10----|
|--------------------|-------------------------|
|--------------------|-------------------------|


  C                     C#°7              Dm
    Q   E  E E  E Q     Q   E E E E Q      Q    E E  E     E Q
|---3---3--3-3--3-3---|-3---3-3-3-3-3---|--5----5-5--5-----5-5-----|
|---5---5--5-5--5-5---|-2---2-2-2-2-2---|--6----6-6--6-----6-6-----|
|---5---5--5-5--5-5---|-3---3-3-3-3-3---|--7----7-7--7-----7-7-----|
|---5---5--5-5--5-5---|-2---2-2-2-2-2---|--7----7-7--7-----7-7-----|
|---3---3--3-3--3-3---|-4---4-4-4-4-4---|--5----5-5--5-----5-5-----|
|---------------------|-----------------|--------------------------|
|
|   ~~~~
|   Q.     E E  E E E   E E E E Q   E E    E E  E E  S  S  E E  E
|---------------------|-----8-9-------9-|-10---10-8-10s11-10-8-----|
|-/11--------8--------|---8-------------|----------------------10--|
|-/11-----10-8------8-|-9---------------|--------------------------|
|--------------10-----|-----------------|--------------------------|
|---------------------|-----------------|--------------------------|
|---------------------|-----------------|--------------------------|


  G                     C
  Q    E  E  E E  Q     Q   E E E   E  Q
|-3----3--3--3-3--3---|-3---3-3-3---3--3---|
|-3----3--3--3-3--3---|-5---5-5-5---5--5---|
|-4----4--4--4-4--4---|-5---5-5-5---5--5---|
|-5----5--5--5-5--5---|-5---5-5-5---5--5---|
|-5----5--5--5-5--5---|-3---3-3-3---3--3---|
|---------------------|--------------------|
|
| E  E E  E  E E  E E   E E E E S S E  E E
|-8-------------------|-----8---7h8p7------|
|---11-8--------------|---8-----------10---|
|--------11-10-8----8-|-9------------------|
|----------------10---|--------------------|
|---------------------|--------------------|
|---------------------|--------------------|


  E7                  Am
  Q   E E  E  E Q      Q    E E E    E Q
|-7---7-7--7--7-7---|--5----5-5-5----5-5----|
|-9---9-9--9--9-9---|--5----5-5-5----5-5----|
|-7---7-7--7--7-7---|--5----5-5-5----5-5----|
|-9---9-9--9--9-9---|--7----7-7-7----7-7----|
|-7---7-7--7--7-7---|--7----7-7-7----7-7----|
|-------------------|-----------------------|
|
| E E E E +Q    E E    E E  E E S  S E E  E
|-------------------|-----------------------|
|-9-----------------|-----------------------|
|---9---------------|---------7-9h10p9-7----|
|-----9-9-(9)-----9-|-10-9-10------------10-|
|-------------------|-----------------------|
|-------------------|-----------------------|


  C7               F
  Q  E E E E Q     Q   E E E   E  Q
|-3--3-3-3-3-3---|-1---1-1-1---1--1---|
|-5--5-5-5-5-5---|-1---1-1-1---1--1---|
|-3--3-3-3-3-3---|-2---2-2-2---2--2---|
|-5--5-5-5-5-5---|-3---3-3-3---3--3---|
|-3--3-3-3-3-3---|-3---3-3-3---3--3---|
|----------------|--------------------|
|
| H      E E E E   E E E E E a E +Q
|----------------|--------------------|
|----------------|--------------------|
|----------5-7---|-8-7-5--------------|
|----------------|-------5---5s6-(6)--|
|----------------|--------------------|
|----------------|--------------------|


  Fm                  C
  Q   E E  E  E Q     Q     E  E  E E  Q
|-1---1-1--1--1-1---|-3-----3--3--3-3--3----|
|-1---1-1--1--1-1---|-5-----5--5--5-5--5----|
|-1---1-1--1--1-1---|-5-----5--5--5-5--5----|
|-3---3-3--3--3-3---|-5-----5--5--5-5--5----|
|-3---3-3--3--3-3---|-3-----3--3--3-3--3----|
|-------------------|-----------------------|
|
| E E E E +Q    Q     E  E  E  E  E E  E E
|-------------------|-----------------------|
|-------------------|-----------------------|
|-------------------|-----------------------|
|-------------------|-----------------10----|
|-8-8---8-(8)---x/--|---------10-12---------|
|-------------------|---11-12---------------|


  A7                       Dm7
  Q       E  E   E  E Q    E E E E E E +Q
|-5-------5--5---5--5-5--|-5-5-5-5-5-5-(5)--|
|-5-------5--5---5--5-5--|-6-6-6-6-6-6-(6)--|
|-6-------6--6---6--6-6--|-5-5-5-5-5-5-(5)--|
|-5-------5--5---5--5-5--|-7-7-7-7-7-7-(7)--|
|-7-------7--7---7--7-7--|-5-5-5-5-5-5-(5)--|
|------------------------|------------------|
|
| S  S E  E  E  +Q    Q    E E E E E E +Q
|------------------------|------------------|
|------------------------|------------------|
|------------------------|------------------|
|-9h10p9-----------------|-5-5-5-5-5-5-(5)--|
|--------10-12-(12)------|------------------|
|------------------------|------------------|


  G                   Ebm7
  E E E E +E  E E E   E E E E E E +Q
|-3-----3-(3)-3-3---|-6-6-6-6-6-6-(6)---|
|-3-----3-(3)-3-3---|-7-7-7-7-7-7-(7)---|
|-4-----4-(4)-4-4---|-6-6-6-6-6-6-(6)---|
|-5-----5-(5)-5-5---|-8-8-8-8-8-8-(8)---|
|-5-----5-(5)-5-5---|-6-6-6-6-6-6-(6)---|
|-3-----3-(3)-3-3---|-------------------|
|
| E E E E +Q    Q     E E E E E E +Q
|-------------------|-------------------|
|-------------------|-------------------|
|-------------------|-------------------|
|-------------------|-6-6-6-6-6-6-(6)---|
|-------------------|-------------------|
|-3-----3-(3)-------|-------------------|


  Ab                  Dm7                G                   C
  E E E E +E  E E E   E E E E E E +Q     E E E E +E  E E E   E E Q  H
|-4-----4-(4)-4-4---|-5-5-5-5-5-5-(5)--|-3-----3-(3)-3-3---|-3-----------|
|-4-----4-(4)-4-4---|-6-6-6-6-6-6-(6)--|-3-----3-(3)-3-3---|-5-----------|
|-5-----5-(5)-5-5---|-5-5-5-5-5-5-(5)--|-4-----4-(4)-4-4---|-5-----------|
|-6-----6-(6)-6-6---|-7-7-7-7-7-7-(7)--|-5-----5-(5)-5-5---|-5-----------|
|-6-----6-(6)-6-6---|-5-5-5-5-5-5-(5)--|-5-----5-(5)-5-5---|-3-----------|
|-------------------|------------------|-3-----3-(3)-3-3---|-------------|
|
| E E E E +Q    Q     E E E E E E +Q     E E E E +Q    E E   E E Q  H
|-------------------|------------------|-------------------|-------------|
|-------------------|------------------|-------------------|-------------|
|-------------------|------------------|-------------------|-------------|
|-------------------|-5-5-5-5-5-5-(5)--|-------------------|-------------|
|-------------------|------------------|-------------------|-3-----------|
|-4-----4-(4)-------|------------------|-3-----3-(3)-----3-|-------------|


              Dm                  G                     C
           Gtr III
  W            H.           Q      H.              Q     H.            Q
|----------||-^5----------------|-^3------------------|-^3------------------|
|----------||-^6----------------|-^3------------------|-^5------------------|
|----------||-^7----------------|-^4------------------|-^5------------------|
|----------||-^7----------------|-^5------------------|-^5------------------|
|----------||-^5----------------|-^5------------------|-^3------------------|
|----------||-------------------|---------------------|---------------------|
|
|              PM--------------------------------------------------------|
| W            Q.   E  E  E E E    E   E  +Q   Q   Q     Q    E E E  E E  E
|----------||-------------------|---------------------|---------------------|
|----------||-------------------|---------------------|------10-------------|
|----------||-----------------9-|--------------9--10--|-12--------9-10---12-|
|----------||-------9-10-12-----|-----12-(12)---------|---------------------|
|----------||-12----------------|---------------------|---------------------|
|----------||-------------------|---------------------|---------------------|


  C#°7           Dm                  G                       Cmaj7
    H.      Q     H.           Q      H.               Q      H.      Q
|-^-3----------|-^5----------------|-^3--------------------|-^3----------|
|-^-2----------|-^6----------------|-^3--------------------|-^5----------|
|-^-3----------|-^7----------------|-^4--------------------|-^4----------|
|-^-2----------|-^7----------------|-^5--------------------|-^5----------|
|-^-4----------|-^5----------------|-^5--------------------|-^3----------|
|--------------|-------------------|-----------------------|-------------|
|
|   PM-------------------------------------------------------|
|  +H.      Q     Q.   E  E  E E E    E   E  +Q   E E  E E    W
|--------------|-------------------|-----------------------|-------------|
|--------------|-------------------|-----------------------|-------------|
|-(12)---------|-----------------9-|--------------9---12---|-------------|
|--------------|-------9-10-12-----|-----12-(12)-----------|--9----------|
|--------------|-12----------------|-----------------------|-------------|
|--------------|-------------------|-----------------------|-------------|


  C              Ebm7
   H.      Q      H.            Q
|-^3----------||-^6------------------|
|-^5----------||-^7------------------|
|-^5----------||-^6------------------|
|-^5----------||-^8------------------|
|-^3----------||-^6------------------|
|-------------||---------------------|
|
|  PM---------------------------------
|  H.      Q      Q.    E  E  E E  E
|-------------||---------------------|
|-------------||---------------------|
|-------------||------------------10-|
|--7----------||-------10-11-13------|
|-------------||-13------------------|
|-------------||---------------------|


  Ab                     Db
   H.               Q     H.            Q
|-^4-------------------|-^4------------------|
|-^4-------------------|-^6------------------|
|-^5-------------------|-^6------------------|
|-^6-------------------|-^6------------------|
|-^6-------------------|-^4------------------|
|----------------------|---------------------|
|
|-----------------------------------------|
|  E   E  +Q    Q   Q     Q    Q   E  Q    E
|----------------------|---------------------|
|----------------------|------11-------------|
|--------------10--11--|-13-------10-11---13-|
|-----13-(13)----------|---------------------|
|----------------------|---------------------|
|----------------------|---------------------|


  F°7/D          Ebm7                  Ab9                  Dm
    H.      Q     H.            Q       H.            Q      H.           Q
|-^-4----------|-^6------------------|-^6----------------||-^5----------------|
|-^-3----------|-^7------------------|-^4----------------||-^6----------------|
|-^-4----------|-^6------------------|-^5----------------||-^7----------------|
|-^-3----------|-^8------------------|-^4----------------||-^7----------------|
|-^-5----------|-^6------------------|-^6----------------||-^5----------------|
|--------------|---------------------|-------------------||-------------------|
|
|   PM----------------------------------------------------------------------|
|  +H.      Q     Q.    E  E  E E  E    E   E  +H     Q      Q.   E  E  E E E
|--------------|---------------------|-------------------||-------------------|
|--------------|---------------------|-------------------||-------------------|
|-(13)---------|------------------10-|-------------------||-----------------9-|
|--------------|-------10-11-13------|-----13-(13)-------||-------9-10-12-----|
|--------------|-13------------------|-------------------||-12----------------|
|--------------|---------------------|-------------------||-------------------|


  G9                      C      F
                       Gtr I
    H.              Q     Q  E E E E Q
|-^10------------------||-3--3-3-1-1-1--|
|-^10------------------||-5--5-5-1-1-1--|
|-^10------------------||-5--5-5-2-2-2--|
|-^-9------------------||-5--5-5-3-3-3--|
|-^10------------------||-3--3-3-3-3-3--|
|----------------------||---------------|
|
|   PM----|
|   E   E  +Q    H        W
|----------------------||---------------|
|----------------------||---------------|
|----------------------||---------------|
|------12-(12)\--------||---------------|
|----------------------||---------------|
|----------------------||---------------|


                                     D.S. al Coda
  C      F        C      F        C      F
  Q  E E E E Q    Q  E E E E Q    Q  E E E E E E
|-3--3-3-1-1-1--|-3--3-3-1-1-1--|-3--3-3-1-1-1-1----||
|-5--5-5-1-1-1--|-5--5-5-1-1-1--|-5--5-5-1-1-1-1----||
|-5--5-5-2-2-2--|-5--5-5-2-2-2--|-5--5-5-2-2-2-2----||
|-5--5-5-3-3-3--|-5--5-5-3-3-3--|-5--5-5-3-3-3-3----||
|-3--3-3-3-3-3--|-3--3-3-3-3-3--|-3--3-3-3-3-3-3----||
|---------------|---------------|-------------------||
|
| W               W               H      Q   E E
|---------------|---------------|-------------------||
|---------------|---------------|-------------------||
|---------------|---------------|-------------------||
|---------------|---------------|------------2-3----||
|---------------|---------------|-------------------||
|---------------|---------------|-------------------||


  &
  Ebm7               Ab
  E E E E E E +Q     E E E E +E  E E E
|-6-6-6-6-6-6-(6)--|-4-----4-(4)-4-4---|
|-7-7-7-7-7-7-(7)--|-4-----4-(4)-4-4---|
|-6-6-6-6-6-6-(6)--|-5-----5-(5)-5-5---|
|-8-8-8-8-8-8-(8)--|-6-----6-(6)-6-6---|
|-6-6-6-6-6-6-(6)--|-6-----6-(6)-6-6---|
|------------------|-------------------|
|
| E E E E E E +Q     E E E E +Q    Q
|------------------|-------------------|
|------------------|-------------------|
|------------------|-------------------|
|-6-6-6-6-6-6-(6)--|-------------------|
|------------------|-------------------|
|------------------|-4-----4-(4)-------|


  Dm7                G                   C
  E E E E E E +Q     E E E E +E  E E E   E E Q  H
|-5-5-5-5-5-5-(5)--|-3-----3-(3)-3-3---|-3-----------|
|-6-6-6-6-6-6-(6)--|-3-----3-(3)-3-3---|-5-----------|
|-5-5-5-5-5-5-(5)--|-4-----4-(4)-4-4---|-5-----------|
|-7-7-7-7-7-7-(7)--|-5-----5-(5)-5-5---|-5-----------|
|-5-5-5-5-5-5-(5)--|-5-----5-(5)-5-5---|-3-----------|
|------------------|-3-----3-(3)-3-3---|-------------|
|
| E E E E E E +Q     E E E E +Q    E E   E E Q  H
|------------------|-------------------|-------------|
|------------------|-------------------|-------------|
|------------------|-------------------|-------------|
|-5-5-5-5-5-5-(5)--|-------------------|-------------|
|------------------|-------------------|-3-----------|
|------------------|-3-----3-(3)-----3-|-------------|


                             Cmaj7
  Gtr II
  W          W          H     H      +W
|----------|----------|------------|--------*|
|----------|----------|------^5----|-(5)----*|
|----------|----------|------^4----|-(4)----*|
|----------|----------|------^5----|-(5)----*|
|----------|----------|------^3----|-(3)----*|
|----------|----------|------------|--------*|


Duration Legend
---------------
W - whole; H - half; Q - quarter; E - 8th; S - 16th; T - 32nd; X - 64th; a - acciaccatura
+ - note tied to previous; . - note dotted; .. - note double dotted
Uncapitalized letters represent notes that are staccato (1/2 duration)
Irregular groupings are notated above the duration line
Duration letters will always appear directly above the note/fret number it represents the
duration for.  Duration letters with no fret number below them represent rests.  Multi-
bar rests are notated in the form Wxn, where n is the number of bars to rest for.  Low
melody durations appear below the staff

Tablature Legend
----------------
 h   - hammer-on
 p   - pull-off
 b   - bend
 pb  - pre-bend
 r   - bend release (if no number after the r, then release immediately)
 /\  - slide into or out of (from/to "nowhere")
 s   - legato slide
 S   - shift slide
  - natural harmonic
[n]  - artificial harmonic
n(n) - tapped harmonic
 ~   - vibrato
 tr  - trill
 T   - tap
 TP  - trem. picking
 PM  - palm muting
\n/  - tremolo bar dip; n = amount to dip
 \n  - tremolo bar down
 n/  - tremolo bar up
/n\  - tremolo bar inverted dip
 =   - hold bend; also acts as connecting device for hammers/pulls
 <>  - volume swell (louder/softer)
 x   - on rhythm slash represents muted slash
 o   - on rhythm slash represents single note slash

Misc Legend
-----------
 |  - bar
||  - double bar
||o - repeat start
o|| - repeat end
*|  - double bar (ending)
 :  - bar (freetime)
 $  - Segno
 &  - Coda
Tempo markers -  = BPM(8/16=s8/s16), where s8 = swing 8ths, s16 = swing 16ths
Добавлено: 17.05.2015
Другие материалы по этой песне:

Страница создана 07.05.2012
http://primanota.ru/shadows/bossa-roo-chords.htm
Привет, Гость.
Предлагаем пройти революционный курс по гитаре.
Подарок от PrimaNota.Ru, забирай!