PrimaNota.ru - самый крупный в мире бесплатный архив песенных текстов, аккордов, табулатур и нот


Set It Off - Horrible Kids - таба, видео

Регистрация Запомнить меня
Войти через:  Facebook Google Twitter Vk Yandex Mail.ru

Set It Off - Horrible Kids - таба, видео

Печатать
Просмотров: 182
INTRO 

Electric 2
(palm mute)
E|---------|
B|---------|
G|---------|
D|---------|
A|---------|
D|-9-5-2-4-|

VERSE

Electric 1
(Strings)
E|---------------------------|
B|---------------------------|
G|-------------16-16-11-9-11-|
D|-12-14-16-17----x--x--x-x--|
A|----------------14-9--7-9--|
D|---------------------------|

Electric 2

E|---------|
B|---------|
G|---------|
D|-9-5-2-4-|
A|-9-5-2-4-|
D|-9-5-2-4-|

CHORUS

Electric 1
(fast)
E|----------------------|
B|----------------------|
G|-----------------9----|
D|-9h11/12-x3-9h11---12-|
A|----------------------|
D|----------------------|

Electric 2

E|---------|
B|---------|
G|---------|
D|-9-5-2-4-|
A|-9-5-2-4-|
D|-9-5-2-4-|

POST

Electric 1
Violin (doubles of each note)
E|--------------------------------------------|
B|--------------------------------------------|
G|------------------9--------------------9-11-|
D|-9-12-11-12--9-12---11-9-12-11-12-9-12------|
A|--------------------------------------------|
D|--------------------------------------------|

VERSE (part 1)

Electric 3
Bell
E|-------------------|
B|----19-20-19-17----|
G|-16-------------15-|
D|-------------------| x2
A|-------------------|
D|-------------------|

VERSE (part 2)

Electric 1

E|------------|
B|------------|
G|-16-12-9-11-|
D|-x--x--x-x--|
A|-14-10-7-9--|
D|------------|

Electric 3
Bell
E|-------------------|
B|----19-20-19-17----|
G|-16-------------15-|
D|-------------------| 
A|-------------------|
D|-------------------|

Electric 2

E|---------|
B|---------|
G|---------|
D|-9-5-2-4-|
A|-9-5-2-4-|
D|-9-5-2-4-|

VERSE (part 3)

Electric 1
Violin (doubles of each note)
E|--------------------------------------------|
B|--------------------------------------------|
G|------------------9--------------------9-11-|
D|-9-12-11-12--9-12---11-9-12-11-12-9-12------|
A|--------------------------------------------|
D|--------------------------------------------|

Electric 2

E|---------------|
B|---------------|
G|---------------|
D|-5-12-7-5-12-8-|
A|-5-12-7-5-12-8-|
D|-5-12-7-5-12-8-|

CHORUS

POST

Electric 3
Bell (Distorted)
E|-------------------|
B|----19-20-19-17----|
G|-16-------------15-|
D|-------------------| 
A|-------------------|
D|-------------------|

Electric 2

E|---------|
B|---------|
G|---------|
D|-9-5-2-4-|
A|-9-5-2-4-|
D|-9-5-2-4-|

BRIDGE (part 1)

Electric 1
(repeatedly)
E|-18-|
B|-20-|
G|----|
D|----|
A|----|
D|----|

Electric 2

E|---|
B|---|
G|---|
D|-9-|
A|-9-|
D|-9-|

BRIDGE (part 2)

Electric 2
(palm mute)
E|---|
B|---|
G|---|
D|-5-|
A|-5-|
D|-5-|

PRE-CHORUS

Electric 2

E|-----|
B|-----|
G|-----|
D|-5-7-|
A|-5-7-|
D|-5-7-|

CHORUS 

POST
Добавлено: 23.06.2013
Другие материалы по этой песне:
  • Аккорды и текст

Страница создана 23.06.2013
http://primanota.ru/set-it-off/horrible-kids-chords.htm
Привет, Гость.
Предлагаем пройти революционный курс по гитаре.
Подарок от PrimaNota.Ru, забирай!