PrimaNota.ru - самый крупный в мире бесплатный архив песенных текстов, аккордов, табулатур и нот


Set It Off - No Control - таба, бас-таба, видео

Регистрация Запомнить меня
Войти через:  Facebook Google Twitter Vk Yandex Mail.ru

Set It Off - No Control - таба, бас-таба, видео

Печатать
Просмотров: 248
PIANO INTRO

VERSE

Electric 1

E|------------------------|
B|------------------------|
G|-9/11/13\11/13\11/14-13-|
D|-x-x--x--x--x--x--x--x--|
A|-7/9-/11\9-/11\9-/12-11-|
D|------------------------|

Electric 2

E|-----------|
B|-----------|
G|-----------|
D|-11-10-7-6-|
A|-11-10-7-6-|
D|-11-10-7-6-|

CHORUS

Electric 1

E|------------|
B|------------|
G|-9-13-14-17-|
D|-x-x--x--x--|
A|-7-11-12-15-|
D|------------|

Electric 2

E|----------|
B|----------|
G|----------|
D|-2-6-7-10-|
A|-2-6-7-10-|
D|-2-6-7-10-|

VERSE (part 1)

Electric 1
(listen to song for pattern)
E|-------|
B|-------|
G|-13-14-|
D|-x--x--|
A|-11-12-|
D|-------|

Electric 2
(fast pm)
E|--------------|
B|--------------|
G|--------------|
D|--------------|
A|--------------|
D|-11-10-7-6-10-|

VERSE (part 2)

Electric 1
(listen to song for pattern)
E|-------|
B|-------|
G|-13-14-|
D|-x--x--|
A|-11-12-|
D|-------|

Electric 2
(mix in pms and full strums)
E|--------------|
B|--------------|
G|--------------|
D|-11-10-7-6-10-|
A|-11-10-7-6-10-|
D|-11-10-7-6-10-|

VERSE (part 3)

Electric 1

E|-----------------------------------------------------|
B|-----------------------------------------------------|
G|-----------------------------------------------------|
D|----------------------------11-11-------11-11--13-13-|
A|-12-12--11-11--12-12--14-14-------14-14--------------|
D|-----------------------------------------------------|

Electric 2

E|-----------------|
B|-----------------|
G|-----------------|
D|-7-6----7-6-7-10-|
A|-7-6----7-6-7-10-|
D|-7-6----7-6-7-10-|

PRE-CHORUS

Electric 1+2

E|----------------|
B|----------------|
G|----------------|
D|-7-2-11-9-7-2-9-|
A|-7-2-11-9-7-2-9-|
D|-7-2-11-9-7-2-9-|

CHORUS

BRIDGE (part 1)

Electric 2
(fast pm)
E|--------------------|
B|--------------------|
G|--------------------|
D|--------------------|
A|--------------------|
D|-11-10-14-7-11-10-2-|

BRIDGE (part 2)

Electric 1

E|---------------|
B|---------------|
G|-6-5-9---6-8-9-|
D|-6-5-9-7-6-8-9-|
A|-4-3-7-7-4-6-7-|
D|-------7-------|

Electric 2
(fast pm)
E|--------------------|
B|--------------------|
G|--------------------|
D|--------------------|
A|--------------------|
D|-11-10-14-7-11-10-2-|

CHORUS

VIOLIN OUTRO

Добавлено: 01.06.2013
Другие материалы по этой песне:
  • Аккорды и текст

Страница создана 01.06.2013
http://primanota.ru/set-it-off/no-control-chords.htm
Привет, Гость.
Предлагаем пройти революционный курс по гитаре.
Подарок от PrimaNota.Ru, забирай!