PrimaNota.ru - самый крупный в мире бесплатный архив песенных текстов, аккордов, табулатур и нот


Serj Tankian - Blue - аккорды и текст, таба, видео

Регистрация Запомнить меня
Войти через:  Facebook Google Twitter Vk Yandex Mail.ru

Serj Tankian - Blue - аккорды и текст, таба, видео

Печатать
Просмотров: 473
Уроки эстрадного вокала в Санкт-Петербурге
Blue
Serj Tankian
Tuning: Drop D

Intro:
e|-----------------------------------------------|
B|-----------------------------------------------|
G|-----------------------------------------------|   X4
D|-----------------------------------------------|
A|-----------------------------------------------|
d|--0--4-4-4-4-4---1-1-1-1-1---------------------|


Chorus:
e|---------------------------------------------------------|
B|---------------------------------------------------------|
G|-------5----------5-----------5-----------5--------------|
D|-----4---4------4---4-------4---4-------4---4------------|
A|---5------5---5-------5---5-------5---5-------5----------|
d|-0----------0-----------0-----------0--------------------|

e|---------------------------------------------------------|
B|---------------------------------------------------------|
G|--------3-----------3-----------3-----------3------------|
D|------2---2-------2---2-------2---2-------2---2----------|
A|----3-------3---3-------3---3-------3---3-------3--------|
d|--0-----------0-----------0-----------0------------------|
play all of this 2 and a half times, then end this chorus on:
e|--------------------------------|
B|--------------------------------|
G|-------3-----3-----3------------|
D|-----2---2-----2-----2----------|
A|---3-------3-----3-----3--------|
d|-0------------------------------|

Verse 1:
e|----------------------------------------------------------|
B|----------------------------------------------------------|
G|----------------------------------------------------------|
D|----4-4-4-4-4--2-2-2-2-2----4-4-4-4-4--2-2-2-2-2----------|
A|----4-4-4-4-4--2-2-2-2-2----4-4-4-4-4--2-2-2-2-2----------|
d|--0-3-3-3-3-3--1-1-1-1-1--0-3-3-3-3-3--1-1-1-1-1----------|

e|----------------------------------------------------------|
B|----------------------------------------------------------|
G|---3-3-3-3-3--4-4-4-4-4--6-6-6-6-6--4-4-4-4-4-------------|
D|---3-3-3-3-3--4-4-4-4-4--6-6-6-6-6--4-4-4-4-4-------------|
A|---1-1-1-1-1--2-2-2-2-2--4-4-4-4-4--2-2-2-2-2-------------|
d|----------------------------------------------------------|
then Go straight into the chorus

Chorus:
e|---------------------------------------------------------|
B|---------------------------------------------------------|
G|-------5----------5-----------5-----------5--------------|
D|-----4---4------4---4-------4---4-------4---4------------|
A|---5------5---5-------5---5-------5---5-------5----------|
d|-0----------0-----------0-----------0--------------------|

e|---------------------------------------------------------|
B|---------------------------------------------------------|
G|--------3-----------3-----------3-----------3------------|  play all 3 times
D|------2---2-------2---2-------2---2-------2---2----------|
A|----3-------3---3-------3---3-------3---3-------3--------|
d|--0-----------0-----------0-----------0------------------|

Verse 2:
e|----------------------------------------------------------|
B|----------------------------------------------------------|
G|----------------------------------------------------------|
D|----4-4-4-4-4--2-2-2-2-2----4-4-4-4-4--2-2-2-2-2----------|
A|----4-4-4-4-4--2-2-2-2-2----4-4-4-4-4--2-2-2-2-2----------|
d|--0-3-3-3-3-3--1-1-1-1-1--0-3-3-3-3-3--1-1-1-1-1----------|

e|----------------------------------------------------------|
B|----------------------------------------------------------|
G|---3-3-3-3-3--4-4-4-4-4--6-6-6-6-6--4-4-4-4-4-------------|
D|---3-3-3-3-3--4-4-4-4-4--6-6-6-6-6--4-4-4-4-4-------------|
A|---1-1-1-1-1--2-2-2-2-2--4-4-4-4-4--2-2-2-2-2-------------|
d|----------------------------------------------------------|

Solo: (i think this may be on mandolin or something, 
but here it is on guitar)
e|---9--10--9-9--9-9-9-10--------------------------------------------------|
B|-------------------------10-10-10-10h11p10-10h11p10-10h11p10--8-8-8------|
G|----------------------------------11--------11-------11------------------|
D|-------------------------------------------------------------------------|
A|-------------------------------------------------------------------------|
d|-------------------------------------------------------------------------|

e|----------------------9-9-10--9-9-9--9-9-10--9-9----------------------|
B|--8h9p8-8h9p8-8h9p8------------------------------10-10-10-10h11p10----|
G|--9-----9-----9---------------------------------------------11--------|
D|----------------------------------------------------------------------|
A|----------------------------------------------------------------------|
d|----------------------------------------------------------------------|

e|--------------------------------------------------------------|
B|-10h11p10-10h11p10--8-8-8-8h9p8-8h9p8-8h9p8-------------------|
G|-11-------11---------------9-----9------9---------------------|
D|--------------------------------------------------------------|
A|--------------------------------------------------------------|
d|--------------------------------------------------------------|

underneath this is played:
e|---------------------------|
B|---------------------------|
G|---------------------------|
D|--0-0-0-0--0-0-0-0-0-------|
A|--0-0-0-0--0-0-0-0-0-------|
d|--0-0-0-0--0-0-0-0-0-------|
play it to fit the solo, he kind of varies the pattern, 
but i think thats the chord.

Verse 3:
e|----------------------------------------------------------|
B|----------------------------------------------------------|
G|----------------------------------------------------------|
D|----4-4-4-4-4--2-2-2-2-2----4-4-4-4-4--2-2-2-2-2----------|
A|----4-4-4-4-4--2-2-2-2-2----4-4-4-4-4--2-2-2-2-2----------|
d|--0-3-3-3-3-3--1-1-1-1-1--0-3-3-3-3-3--1-1-1-1-1----------|

e|----------------------------------------------------------|
B|----------------------------------------------------------|
G|---3-3-3-3-3--4-4-4-4-4--6-6-6-6-6--4-4-4-4-4-------------|
D|---3-3-3-3-3--4-4-4-4-4--6-6-6-6-6--4-4-4-4-4-------------|
A|---1-1-1-1-1--2-2-2-2-2--4-4-4-4-4--2-2-2-2-2-------------|
d|----------------------------------------------------------|

Chorus:
e|---------------------------------------------------------|
B|---------------------------------------------------------|
G|-------5----------5-----------5-----------5--------------|
D|-----4---4------4---4-------4---4-------4---4------------|
A|---5------5---5-------5---5-------5---5-------5----------|
d|-0----------0-----------0-----------0--------------------|

e|---------------------------------------------------------|
B|---------------------------------------------------------|
G|--------3-----------3-----------3-----------3------------|
D|------2---2-------2---2-------2---2-------2---2----------|
A|----3-------3---3-------3---3-------3---3-------3--------|
d|--0-----------0-----------0-----------0------------------|
play this twice, but the second time you play it, 
play softer and softer and slower and slower 
to the point where its barely audible.
Добавлено: 11.06.2015
Другие материалы по этой песне:

Страница создана 22.02.2012
http://primanota.ru/serj-tankian/blue-chords.htm
Привет, Гость.
Предлагаем пройти революционный курс по гитаре.
Подарок от PrimaNota.Ru, забирай!