PrimaNota.ru - самый крупный в мире бесплатный архив песенных текстов, аккордов, табулатур и нот


Septic Flesh - The Vampire From Nazareth - текст песни, таба, видео

Регистрация Запомнить меня
Войти через:  Facebook Google Twitter Vk Yandex Mail.ru

Septic Flesh - The Vampire From Nazareth - текст песни, таба, видео

Печатать
Просмотров: 88
Artist: Septic Flesh
Track: The Vampire From Nazareth
Album: The Great Mass



      PM PM PM PM PM PM PM PM    PM PM PM PM PM PM PM PM    PM PM PM PM PM PM PM
      T  T  T  T  T  T  T  T  E  T  T  T  T  T  T  T  T  E  T  T  T  T  T  T  T
C ||----------------------------------------------------------------------------|
G ||----------------------------------------------------------------------------|
D#||----------------------------------------------------------------------------|
A#||----------------------------------------------------------------------------|
F ||--2--2--2--2--2--2--2--2-----2--2--2--2--2--2--2--2-----2--2--2--2--2--2--2-|
C ||--0--0--0--0--0--0--0--0-----0--0--0--0--0--0--0--0-----0--0--0--0--0--0--0-|


  PM PM PM PM PM PM PM PM    PM PM PM PM PM PM PM PM    PM PM PM PM PM PM PM PM
  T  T  T  T  T  T  T  T  E  T  T  T  T  T  T  T  T  E  T  T  T  T  T  T  T  T
--------------------------------------------------------------------------------|
--------------------------------------------------------------------------------|
--------------------------------------------------------------------------------|
--------------------------------------------------------------------------------|
--2--2--2--2--2--2--2--2-----2--2--2--2--2--2--2--2-----2--2--2--2--2--2--2--2--|
--0--0--0--0--0--0--0--0-----0--0--0--0--0--0--0--0-----0--0--0--0--0--0--0--0--|


  PM PM PM PM PM PM PM PM    PM PM PM PM PM PM PM PM    PM PM PM PM PM PM PM PM
  T  T  T  T  T  T  T  T  E  T  T  T  T  T  T  T  T  E  T  T  T  T  T  T  T  T
--------------------------------------------------------------------------------|
--------------------------------------------------------------------------------|
--------------------------------------------------------------------------------|
--------------------------------------------------------------------------------|
--2--2--2--2--2--2--2--2-----2--2--2--2--2--2--2--2-----2--2--2--2--2--2--2--2--|
--0--0--0--0--0--0--0--0-----0--0--0--0--0--0--0--0-----0--0--0--0--0--0--0--0--|


  PM PM PM PM PM PM PM PM    PM PM PM PM PM PM PM PM    PM PM
  T  T  T  T  T  T  T  T  E  T  T  T  T  T  T  T  T  E  E  E
--------------------------------------------------------------|
--------------------------------------------------------------|
--------------------------------------------------------------|
--------------------------------------------------------5--3--|
--2--2--2--2--2--2--2--2-----2--2--2--2--2--2--2--2-----5--3--|
--0--0--0--0--0--0--0--0-----0--0--0--0--0--0--0--0-----3--1--|


  PM PM PM PM PM PM PM PM    PM PM PM PM PM PM PM PM    PM PM PM PM PM PM PM PM
  T  T  T  T  T  T  T  T  E  T  T  T  T  T  T  T  T  E  T  T  T  T  T  T  T  T
--------------------------------------------------------------------------------|
--------------------------------------------------------------------------------|
--------------------------------------------------------------------------------|
--------------------------------------------------------------------------------|
--2--2--2--2--2--2--2--2-----2--2--2--2--2--2--2--2-----2--2--2--2--2--2--2--2--|
--0--0--0--0--0--0--0--0-----0--0--0--0--0--0--0--0-----0--0--0--0--0--0--0--0--|


  PM PM PM PM PM PM PM PM    PM PM PM PM PM PM PM PM    PM PM PM PM PM PM PM PM
  T  T  T  T  T  T  T  T  E  T  T  T  T  T  T  T  T  E  T  T  T  T  T  T  T  T
--------------------------------------------------------------------------------|
--------------------------------------------------------------------------------|
--------------------------------------------------------------------------------|
--------------------------------------------------------------------------------|
--2--2--2--2--2--2--2--2-----2--2--2--2--2--2--2--2-----2--2--2--2--2--2--2--2--|
--0--0--0--0--0--0--0--0-----0--0--0--0--0--0--0--0-----0--0--0--0--0--0--0--0--|


  W
-------------------|
-------------------|
-------------------|
--8----------------|
--6----------------|
--6----------------|


  T T T T T T T T T T T T T  T  T  T  T T T T T  T  T  T  T T T T T  T  T  T
------------------------------------------------------------------------------|
------------------------------------------------------------------------------|
------------------------------------------------------------------------------|
------------------------------------------------------------------------------|
------------------------------------------------------------------------------|
--0-0-0-0-0-0-2-2-2-2-2-2-2b-2b-2b-2b-2-2-2-2-2b-2b-2b-2b-2-2-2-2-2b-2b-2b-2b-|


  T T T T T T T T T T T T T  T  T  T  T T T T T  T  T  T  T T T T T  T  T  T
------------------------------------------------------------------------------|
------------------------------------------------------------------------------|
------------------------------------------------------------------------------|
------------------------------------------------------------------------------|
------------------------------------------------------------------------------|
--0-0-0-0-0-0-2-2-2-2-2-2-2b-2b-2b-2b-2-2-2-2-2b-2b-2b-2b-2-2-2-2-2b-2b-2b-2b-|


  T T T T T T T T T T T T T  T  T  T  T T T T T  T  T  T  T T T T T  T  T  T
------------------------------------------------------------------------------|
------------------------------------------------------------------------------|
------------------------------------------------------------------------------|
------------------------------------------------------------------------------|
------------------------------------------------------------------------------|
--0-0-0-0-0-0-2-2-2-2-2-2-2b-2b-2b-2b-2-2-2-2-2b-2b-2b-2b-2-2-2-2-2b-2b-2b-2b-|


-------------------|-------------------|
-------------------|-------------------|
-------------------|-------------------|
-------------------|-------------------|
-------------------|-------------------|
-------------------|-------------------|


  PM PM PM PM   PM PM PM PM   PM PM PM PM   PM PM PM PM
  |--3--|       |--3--|       |--3--|       |--3--|
  S  S  S  S  S S  S  S  S  S S  S  S  S  S S  S  S  S  S
----------------------------------------------------------|
----------------------------------------------------------|
----------------------------------------------------------|
----------------------------------------------------------|
--6--6--6--6----6--6--6--6----6--6--6--6----6--6--6--6----|
--6--6--6--6----6--6--6--6----6--6--6--6----6--6--6--6----|


  PM PM PM PM PM PM PM PM PM PM PM PM PM
  |--3--|  |--3--|  |--3--|  |--3--|
  S  S  S  S  S  S  S  S  S  S  S  S  W
-------------------------------------------------------|
-------------------------------------------------------|
-------------------------------------------------------|
--------------------------------------8----------------|
--6--6--6--6--6--6--6--6--6--6--6--6--6----------------|
--6--6--6--6--6--6--6--6--6--6--6--6--6----------------|


  PM PM PM PM   PM PM PM PM   PM PM PM PM   PM PM PM PM
  |--3--|       |--3--|       |--3--|       |--3--|
  S  S  S  S  S S  S  S  S  S S  S  S  S  S S  S  S  S  S
----------------------------------------------------------|
----------------------------------------------------------|
----------------------------------------------------------|
----------------------------------------------------------|
--6--6--6--6----6--6--6--6----6--6--6--6----6--6--6--6----|
--6--6--6--6----6--6--6--6----6--6--6--6----6--6--6--6----|


  PM PM PM PM PM PM PM PM PM PM PM PM PM PM PM PM PM PM PM PM PM PM PM PM
  |--3--|  |--3--|  |--3--|  |--3--|  |--3--|  |--3--|  |--3--|  |--3--|
  S  S  S  S  S  S  S  S  S  S  S  S  S  S  S  S  S  S  S  S  S  S  S  S
--------------------------------------------------------------------------|
--------------------------------------------------------------------------|
--------------------------------------------------------------------------|
--------------------------------------------------------------------------|
--6--6--6--6--6--6--6--6--6--6--6--6--6--6--6--6--6--6--6--6--6--6--6--6--|
--6--6--6--6--6--6--6--6--6--6--6--6--6--6--6--6--6--6--6--6--6--6--6--6--|


  PM PM PM PM PM PM PM PM PM PM PM PM PM PM PM PM PM PM PM PM PM PM PM PM PM PM
  |--3--|  |--3--|  |--3--|  |--3--|  |--3--|  |--3--|  |--3--|  |--3--|  |--3--
  S  S  S  S  S  S  S  S  S  S  S  S  S  S  S  S  S  S  S  S  S  S  S  S  S  S
--------------------------------------------------------------------------------|
--------------------------------------------------------------------------------|
--------------------------------------------------------------------------------|
--------------------------------------------------------------------------------|
--6--6--6--6--6--6--6--6--6--6--6--6--6--6--6--6--6--6--6--6--6--6--6--6--6--6--|
--6--6--6--6--6--6--6--6--6--6--6--6--6--6--6--6--6--6--6--6--6--6--6--6--6--6--|


  PM PM PM PM PM PM PM PM    PM PM PM PM PM PM PM PM    PM PM PM PM PM PM PM PM
  T  T  T  T  T  T  T  T  E  T  T  T  T  T  T  T  T  E  T  T  T  T  T  T  T  T
--------------------------------------------------------------------------------|
--------------------------------------------------------------------------------|
--------------------------------------------------------------------------------|
--------------------------------------------------------------------------------|
--2--2--2--2--2--2--2--2-----2--2--2--2--2--2--2--2-----2--2--2--2--2--2--2--2--|
--0--0--0--0--0--0--0--0-----0--0--0--0--0--0--0--0-----0--0--0--0--0--0--0--0--|


  PM PM PM PM PM PM PM PM    PM PM PM PM PM PM PM PM    PM PM PM PM PM PM PM PM
  T  T  T  T  T  T  T  T  E  T  T  T  T  T  T  T  T  E  T  T  T  T  T  T  T  T
--------------------------------------------------------------------------------|
--------------------------------------------------------------------------------|
--------------------------------------------------------------------------------|
--------------------------------------------------------------------------------|
--2--2--2--2--2--2--2--2-----2--2--2--2--2--2--2--2-----2--2--2--2--2--2--2--2--|
--0--0--0--0--0--0--0--0-----0--0--0--0--0--0--0--0-----0--0--0--0--0--0--0--0--|


  PM PM PM PM PM PM PM PM    PM PM PM PM PM PM PM PM    PM PM PM PM PM PM PM PM
  T  T  T  T  T  T  T  T  E  T  T  T  T  T  T  T  T  E  T  T  T  T  T  T  T  T
--------------------------------------------------------------------------------|
--------------------------------------------------------------------------------|
--------------------------------------------------------------------------------|
--------------------------------------------------------------------------------|
--2--2--2--2--2--2--2--2-----2--2--2--2--2--2--2--2-----2--2--2--2--2--2--2--2--|
--0--0--0--0--0--0--0--0-----0--0--0--0--0--0--0--0-----0--0--0--0--0--0--0--0--|


  PM PM PM PM PM PM PM PM    PM PM PM PM PM PM PM PM    PM PM
  T  T  T  T  T  T  T  T  E  T  T  T  T  T  T  T  T  E  E  E
--------------------------------------------------------------|
--------------------------------------------------------------|
--------------------------------------------------------------|
--------------------------------------------------------5--3--|
--2--2--2--2--2--2--2--2-----2--2--2--2--2--2--2--2-----5--3--|
--0--0--0--0--0--0--0--0-----0--0--0--0--0--0--0--0-----3--1--|


  PM PM PM PM PM PM PM PM    PM PM PM PM PM PM PM PM    PM PM PM PM PM PM PM PM
  T  T  T  T  T  T  T  T  E  T  T  T  T  T  T  T  T  E  T  T  T  T  T  T  T  T
--------------------------------------------------------------------------------|
--------------------------------------------------------------------------------|
--------------------------------------------------------------------------------|
--------------------------------------------------------------------------------|
--2--2--2--2--2--2--2--2-----2--2--2--2--2--2--2--2-----2--2--2--2--2--2--2--2--|
--0--0--0--0--0--0--0--0-----0--0--0--0--0--0--0--0-----0--0--0--0--0--0--0--0--|


  PM PM PM PM PM PM PM PM    PM PM PM PM PM PM PM PM    PM PM PM PM PM PM PM PM
  T  T  T  T  T  T  T  T  E  T  T  T  T  T  T  T  T  E  T  T  T  T  T  T  T  T
--------------------------------------------------------------------------------|
--------------------------------------------------------------------------------|
--------------------------------------------------------------------------------|
--------------------------------------------------------------------------------|
--2--2--2--2--2--2--2--2-----2--2--2--2--2--2--2--2-----2--2--2--2--2--2--2--2--|
--0--0--0--0--0--0--0--0-----0--0--0--0--0--0--0--0-----0--0--0--0--0--0--0--0--|


  W
-------------------|
-------------------|
-------------------|
--8----------------|
--6----------------|
--6----------------|


  T T T T T T T T T T T T T  T  T  T  T T T T T  T  T  T  T T T T T  T  T  T
------------------------------------------------------------------------------|
------------------------------------------------------------------------------|
------------------------------------------------------------------------------|
------------------------------------------------------------------------------|
------------------------------------------------------------------------------|
--0-0-0-0-0-0-2-2-2-2-2-2-2b-2b-2b-2b-2-2-2-2-2b-2b-2b-2b-2-2-2-2-2b-2b-2b-2b-|


  T T T T T T T T T T T T T  T  T  T  T T T T T  T  T  T  T T T T T  T  T  T
------------------------------------------------------------------------------|
------------------------------------------------------------------------------|
------------------------------------------------------------------------------|
------------------------------------------------------------------------------|
------------------------------------------------------------------------------|
--0-0-0-0-0-0-2-2-2-2-2-2-2b-2b-2b-2b-2-2-2-2-2b-2b-2b-2b-2-2-2-2-2b-2b-2b-2b-|


  T T T T T T T T T T T T T  T  T  T  T T T T T  T  T  T  T T T T T  T  T  T
------------------------------------------------------------------------------|
------------------------------------------------------------------------------|
------------------------------------------------------------------------------|
------------------------------------------------------------------------------|
------------------------------------------------------------------------------|
--0-0-0-0-0-0-2-2-2-2-2-2-2b-2b-2b-2b-2-2-2-2-2b-2b-2b-2b-2-2-2-2-2b-2b-2b-2b-|


  H        H           Q.     Q    Q.        H        H
--------------------|---------------------|--------------------|
--------------------|---------------------|--------------------|
--------------------|--------------3------|--------------------|
--2--------2--------|--2------2----3------|--2--------2--------|
--2--------2--------|--2------2----1------|--2--------2--------|
--0--------0--------|--0------0-----------|--0--------0--------|


  Q.     Q    Q.        H        H           Q.     Q    Q.
---------------------|--------------------|---------------------|
---------------------|--------------------|---------------------|
--------------3------|--------------------|--------------3------|
--2------2----3------|--2--------2--------|--2------2----3------|
--2------2----1------|--2--------2--------|--2------2----1------|
--0------0-----------|--0--------0--------|--0------0-----------|


  H        H           Q.     Q    Q.
--------------------|---------------------|-------|-------|-------|-------|
--------------------|---------------------|-------|-------|-------|-------|
--------------------|--------------3------|-------|-------|-------|-------|
--2--------2--------|--2------2----3------|-------|-------|-------|-------|
--2--------2--------|--2------2----1------|-------|-------|-------|-------|
--0--------0--------|--0------0-----------|-------|-------|-------|-------|


-------|-------|-------|
-------|-------|-------|
-------|-------|-------|
-------|-------|-------|
-------|-------|-------|
-------|-------|-------|


  T T T T T T T T T T T T T  T  T  T  T T T T T  T  T  T  T T T T T  T  T  T
------------------------------------------------------------------------------|
------------------------------------------------------------------------------|
------------------------------------------------------------------------------|
------------------------------------------------------------------------------|
------------------------------------------------------------------------------|
--0-0-0-0-0-0-2-2-2-2-2-2-2b-2b-2b-2b-2-2-2-2-2b-2b-2b-2b-2-2-2-2-2b-2b-2b-2b-|


  T T T T T T T T T T T T T  T  T  T  T T T T T  T  T  T  T T T T T  T  T  T
------------------------------------------------------------------------------|
------------------------------------------------------------------------------|
------------------------------------------------------------------------------|
------------------------------------------------------------------------------|
------------------------------------------------------------------------------|
--0-0-0-0-0-0-2-2-2-2-2-2-2b-2b-2b-2b-2-2-2-2-2b-2b-2b-2b-2-2-2-2-2b-2b-2b-2b-|


  T T T T T T T T T T T T T  T  T  T  T T T T T  T  T  T  T T T T T  T  T  T
------------------------------------------------------------------------------|
------------------------------------------------------------------------------|
------------------------------------------------------------------------------|
------------------------------------------------------------------------------|
------------------------------------------------------------------------------|
--0-0-0-0-0-0-2-2-2-2-2-2-2b-2b-2b-2b-2-2-2-2-2b-2b-2b-2b-2-2-2-2-2b-2b-2b-2b-|


  H        H           Q.     Q    Q.        H        H
--------------------|---------------------|--------------------|
--------------------|---------------------|--------------------|
--------------------|--------------3------|--------------------|
--2--------2--------|--2------2----3------|--2--------2--------|
--2--------2--------|--2------2----1------|--2--------2--------|
--0--------0--------|--0------0-----------|--0--------0--------|


  Q.     Q    Q.        H        H           Q.     Q    Q.
---------------------|--------------------|---------------------|
---------------------|--------------------|---------------------|
--------------3------|--------------------|--------------3------|
--2------2----3------|--2--------2--------|--2------2----3------|
--2------2----1------|--2--------2--------|--2------2----1------|
--0------0-----------|--0--------0--------|--0------0-----------|


                                             PM      PM PM PM
  H        H           Q.     Q    Q.        E  Q    S  S  E  Q.
--------------------|---------------------|--------------------------|---------|
--------------------|---------------------|--------------------------|---------|
--------------------|--------------3------|--------------------------|---------|
--2--------2--------|--2------2----3------|--2-------2--2--2---------|---------|
--2--------2--------|--2------2----1------|--2-------2--2--2---------|---------|
--0--------0--------|--0------0-----------|--0-------0--0--0---------|---------|


  PM      PM PM PM                     PM      PM PM PM
  E  Q    S  S  E  Q.                  E  Q    S  S  E  Q.
--------------------------|---------|--------------------------|---------|
--------------------------|---------|--------------------------|---------|
--------------------------|---------|--------------------------|---------|
--2-------2--2--2---------|---------|--2-------2--2--2---------|---------|
--2-------2--2--2---------|---------|--2-------2--2--2---------|---------|
--0-------0--0--0---------|---------|--0-------0--0--0---------|---------|


  PM      PM PM PM                     PM      PM PM PM
  E  Q    S  S  E  Q.                  E  Q    S  S  E  Q.
--------------------------|---------|--------------------------|---------|
--------------------------|---------|--------------------------|---------|
--------------------------|---------|--------------------------|---------|
--2-------2--2--2---------|---------|--2-------2--2--2---------|---------|
--2-------2--2--2---------|---------|--2-------2--2--2---------|---------|
--0-------0--0--0---------|---------|--0-------0--0--0---------|---------|


  PM      PM PM PM                     PM      PM PM PM
  E  Q    S  S  E  Q.                  E  Q    S  S  E  Q.
--------------------------|---------|--------------------------|---------|
--------------------------|---------|--------------------------|---------|
--------------------------|---------|--------------------------|---------|
--2-------2--2--2---------|---------|--2-------2--2--2---------|---------|
--2-------2--2--2---------|---------|--2-------2--2--2---------|---------|
--0-------0--0--0---------|---------|--0-------0--0--0---------|---------|


  PM      PM PM PM                     PM      PM PM PM
  E  Q    S  S  E  Q.                  E  Q    S  S  E  Q.
--------------------------|---------|--------------------------|---------|
--------------------------|---------|--------------------------|---------|
--------------------------|---------|--------------------------|---------|
--2-------2--2--2---------|---------|--2-------2--2--2---------|---------|
--2-------2--2--2---------|---------|--2-------2--2--2---------|---------|
--0-------0--0--0---------|---------|--0-------0--0--0---------|---------|


  PM      PM PM PM                     PM      PM PM PM
  E  Q    S  S  E  Q.                  E  Q    S  S  E  Q.
--------------------------|---------|--------------------------|---------|
--------------------------|---------|--------------------------|---------|
--------------------------|---------|--------------------------|---------|
--2-------2--2--2---------|---------|--2-------2--2--2---------|---------|
--2-------2--2--2---------|---------|--2-------2--2--2---------|---------|
--0-------0--0--0---------|---------|--0-------0--0--0---------|---------|


  PM      PM PM PM                     PM      PM PM PM
  E  Q    S  S  E  Q.                  E  Q    S  S  E  Q.
--------------------------|---------|--------------------------|---------|
--------------------------|---------|--------------------------|---------|
--------------------------|---------|--------------------------|---------|
--2-------2--2--2---------|---------|--2-------2--2--2---------|---------|
--2-------2--2--2---------|---------|--2-------2--2--2---------|---------|
--0-------0--0--0---------|---------|--0-------0--0--0---------|---------|


  PM      PM PM PM                     PM      PM PM PM
  E  Q    S  S  E  Q.                  E  Q    S  S  E  Q.
--------------------------|---------|--------------------------|---------|
--------------------------|---------|--------------------------|---------|
--------------------------|---------|--------------------------|---------|
--2-------2--2--2---------|---------|--2-------2--2--2---------|---------|
--2-------2--2--2---------|---------|--2-------2--2--2---------|---------|
--0-------0--0--0---------|---------|--0-------0--0--0---------|---------|


  PM      PM PM PM
  E  Q    S  S  E  Q.                  W                   W
--------------------------|---------|-------------------|-------------------|
--------------------------|---------|-------------------|-------------------|
--------------------------|---------|-------------------|-------------------|
--2-------2--2--2---------|---------|--2----------------|--L----------------|
--2-------2--2--2---------|---------|--2----------------|--L----------------|
--0-------0--0--0---------|---------|--0----------------|--L----------------|


   H        H           H        H            H        H
--10--------7--------|--9--------5--------|--10--------7--------|
---------------------|--------------------|---------------------|
---------------------|--------------------|---------------------|
---------------------|--------------------|---------------------|
---------------------|--------------------|---------------------|
---------------------|--------------------|---------------------|


  H        H            H        H           H        H
--9--------5--------|--10--------7--------|--9--------5--------|
--------------------|---------------------|--------------------|
--------------------|---------------------|--------------------|
--------------------|---------------------|--------------------|
--------------------|---------------------|--------------------|
--------------------|---------------------|--------------------|


   H         H            H        H            H        H
--14--------10--------|--12--------9--------|--10--------7--------|
----------------------|---------------------|---------------------|
----------------------|---------------------|---------------------|
----------------------|---------------------|---------------------|
----------------------|---------------------|---------------------|
----------------------|---------------------|---------------------|


  H        H            H        H           H        H
--9--------5--------|--10--------7--------|--9--------5--------|
--------------------|---------------------|--------------------|
--------------------|---------------------|--------------------|
--------------------|---------------------|--------------------|
--------------------|---------------------|--------------------|
--------------------|---------------------|--------------------|


   H        H           H        H            H         H
--10--------7--------|--9--------5--------|--14--------10--------|
---------------------|--------------------|----------------------|
---------------------|--------------------|----------------------|
---------------------|--------------------|----------------------|
---------------------|--------------------|----------------------|
---------------------|--------------------|----------------------|


   H        H            H        H           H        H
--12--------9--------|--10--------7--------|--9--------5--------|
---------------------|---------------------|--------------------|
---------------------|---------------------|--------------------|
---------------------|---------------------|--------------------|
---------------------|---------------------|--------------------|
---------------------|---------------------|--------------------|


   H        H           H        H            H        H
--10--------7--------|--9--------5--------|--10--------7--------|
---------------------|--------------------|---------------------|
---------------------|--------------------|---------------------|
---------------------|--------------------|---------------------|
---------------------|--------------------|---------------------|
---------------------|--------------------|---------------------|


  H        H            H         H            H        H
--9--------5--------|--14--------10--------|--12--------9--------|
--------------------|----------------------|---------------------|
--------------------|----------------------|---------------------|
--------------------|----------------------|---------------------|
--------------------|----------------------|---------------------|
--------------------|----------------------|---------------------|


   H        H           H        H            H        H
--10--------7--------|--9--------5--------|--10--------7--------|
---------------------|--------------------|---------------------|
---------------------|--------------------|---------------------|
---------------------|--------------------|---------------------|
---------------------|--------------------|---------------------|
---------------------|--------------------|---------------------|


  H        H            H        H           H        H
--9--------5--------|--10--------7--------|--9--------5--------|
--------------------|---------------------|--------------------|
--------------------|---------------------|--------------------|
--------------------|---------------------|--------------------|
--------------------|---------------------|--------------------|
--------------------|---------------------|--------------------|


   H         H            H        H           W
--14--------10--------|--12--------9--------|--7----------------|
----------------------|---------------------|-------------------|
----------------------|---------------------|-------------------|
----------------------|---------------------|-------------------|
----------------------|---------------------|-------------------|
----------------------|---------------------|-------------------|


  W
--L----------------||
-------------------||
-------------------||
-------------------||
-------------------||
-------------------||




Duration Legend
---------------
W - whole
H - half
Q - quarter
E - 8th
S - 16th
T - 32nd
X - 64th
. - note dotted
|-n-|  - n-tuplets


Tablature Legend
----------------
L - tied note
x - dead note
g - grace note
(n) - ghost note
> - accentuded note
NH - natural harmonic
AH - artificial harmonic
TH - tapped harmonic
SH - semi harmonic
PH - pitch harmonic
h - hammer on
p - pull off
b - bend
br - bendRelease
pb - preBend
pbr - preBendRelease
brb - bendReleaseBend
\n/ - tremolo bar dip
\n - tremolo bar dive
-/n - tremolo bar Release up
/n\ - tremolo bar inverted dip
/n - tremolo bar return
-\n - tremolo bar Release down
S - shift slide
s - legato slide
/ -  slide into from below or out of upwards
\ -  slide into from above or out of downwards
~ - vibrato
W - wide vibrato
tr - trill
TP - tremolo picking
T - tapping
S - slap
P - pop
< - fade in
^ - brush up
v - brush down
Добавлено: 13.06.2013
Другие материалы по этой песне:

Страница создана 01.03.2012
http://primanota.ru/septic-flesh/the-vampire-from-nazareth-chords.htm
Привет, Гость.
Предлагаем пройти революционный курс по гитаре.
Подарок от PrimaNota.Ru, забирай!