PrimaNota.ru - самый крупный в мире бесплатный архив песенных текстов, аккордов, табулатур и нот


September - Satellites - текст песни, таба, перевод, видео

Регистрация Запомнить меня
Войти через:  Facebook Google Twitter Vk Yandex Mail.ru

September - Satellites - текст песни, таба, перевод, видео

Печатать
Просмотров: 1020
Official group website: http://septembermusic.se/
Accoustic version.

Intro:

----------------------------------------------------------------------|
----------------------------------------------------------------------|
----------------------------------------------------------------------|
-6-6--6--6-6--6--6-6--6--6-6--6---------------------------------------|
-----6--6----6--6----6--6----6--6-4-4--4-------4--4-2-2--2-------6----|
--------------------------------------4--4-2-2--2-------2--2-4-4--4---|
                              Even an angel can end up falling
                              Don't you cry, because you're crawling
---------------------------------|
---------------------------------|
---------------------------------|
---------------------------------|
-6-4-4--4-------4--4----6--6-----|
-------4--4-2-2--2--4-4--4--4----|
Start again, it's a beautiful morning
For satellites

Verse 1:
C#m
Well, they said it was time for changing
Rise and shine
E                          G#m
Everybody's making it, but you
         C#m
And they told you to trust your dreaming
           E
But it's hard to believe a feeling
         G#m        F#
That you just don't know

chorus 2x:
C#m                      F#
Even an angel can end up falling
          B                   G#m
Don't you cry, because you're crawling
      C#m                     F#
Start again, it's a beautiful morning
        G#m
For satellites

Verse 2:
You've been trying to walk on water
In the end everybody
Walked all over you
Now, you don't like the sight of mirrors
Cause you're scared that the face
You'll see, will look just like before

Chorus 2x.

Bridge:
              C#m
All I want is you
E
Let me take you back
          G#m          B7M (or F#)
Where you once belonged
              C#m
All I want is you
E                          B
It will be alright if you come along
          F#
You were never gone

intro.

Chorus 1x, end on G#m
Добавлено: 01.05.2012
Вам также может быть интересно:
Другие материалы по этой песне:
  • Аккорды и текст

Страница создана 29.04.2012
http://primanota.ru/september/satellites-chords.htm
Привет, Гость.
Предлагаем пройти революционный курс по гитаре.
Подарок от PrimaNota.Ru, забирай!