PrimaNota.ru - самый крупный в мире бесплатный архив песенных текстов, аккордов, табулатур и нот


Seether - Suffer It All - текст песни, таба, видео

Регистрация Запомнить меня
Войти через:  Facebook Google Twitter Vk Yandex Mail.ru

Seether - Suffer It All - текст песни, таба, видео

Печатать
Просмотров: 97
Уроки эстрадного вокала в Санкт-Петербурге
-------------------------------------------------------------------------------
                             Seether - Suffer It All
-------------------------------------------------------------------------------
Tabbed by: Diesel
E-mail: daughtryfan497@gmail.com

Tuning: Drop C# ( C# - G# - C# - F# - A# - D#)

                              Intro/Main Riff

e|-------------------------------------------------------------------------------|
B|-------------------------------------------------------------------------------|
G|-------------------------------------------------------------------------------|
D|---------------------------------------------12--------------------------------|
A|-7p0-0-0-0-1p0-0-0-0--1-0-0-0--1-0--repeat---10--------------------------------|
E|-7p0-0-0-0-1p0-0-0-0--1-0-0-0--1-0-----------10--------------------------------|
       * * *     * * *    * * *

                                  Verse

e|-----------------------------------------------------------------------------|
B|-----------------------------------------------------------------------------|
G|-----------------------------------------------------------------------------|
D|---------------------------------------------12------------------------------|
A|-1-0-0-1-0-0-1-0-0-1-0-0-1-0-0-1-0-0-1-0-0---10--repeat-x2-------------------|
E|-1-0-0-1-0-0-1-0-0-1-0-0-1-0-0-1-0-0-1-0-0---10------------------------------|
   * * * * * * * * * * * * * * * * * * * * *
e|-----------------------------------------------------------------------------|
B|-----------------------------------------------------------------------------|
G|---------------------------------------------------8-------------------------|
D|-----------------------------12--------------------8-------------------------|
A|-1-0-0-0-0-0-0-x3--1-0-0-0---12---repeat-1st-half--6-------------------------|
E|-1-0-0-0-0-0-0-----1-0-0-0---10--------------------6-------------------------|
   * * * * * *
                              Pre Chorus/Chorus

e|-----------------------------------------------------------------------------|
B|-----------------------------------------------------------------------------|
G|-----------------------------------------------------------------------------|
D|---5---3---8---7---5---3---8---10--10-8-7------------------------------------|
A|---5---1---8---8---5---1---8---10--10-8-7------------------------------------|
E|---5---1---8---7---5---1---8---10--10-8-7------------------------------------|

                               Interlude/Breakdown

e|----------------------------12-------------------------------------------------|
B|----------11----------------14b------------------------------------------------|
G|----------13b--------------------x2--------------------------------------------|
D|--------------x3---------------------------------------------------------------|
A|--0-0-0-0---------0-0-0-0------------------------------------------------------|
E|--0-0-0-0---------0-0-0-0------------------------------------------------------|
    * * * *         * * * *
e|--------------------------------12-----------------12-----------------------------|
B|------------11------------------14b----------------14b----------------------------|
G|------------13b-x3----------------------------------------------------------------|
D|------------------------------------repeat----------------------------------------|
A|-0-0-0-0-0-0--------0-0-0-0-0-0------------0-0-0-0--------------------------------|
E|-0-0-0-0-0-0--------0-0-0-0-0-0------------0-0-0-0--------------------------------|
   * * * * * *        * * * * * *            * * * *

                             Outro

e|---------------------------------------------------------------------------|
B|---------------------------------------------------------------------------|
G|---------------------------------------------------------------------------|
D|---------------------------0-0-0-0--0-0-0-0--------------------------------|
A|---------------------------0-0-0-0--0-0-0-0--x4----------------------------|
E|--3-0-0-5-0-0-7-0-0-3-0-0--0-0-0-0--0-0-0-0--------------------------------|
                             * * * *  * * * *
Intro
Verse
Chorus
Intro
Verse
Chorus
Interlude
Chorus
Intro
Outro
************************************

| /   slide up
| \   slide down
| h   hammer-on
| p   pull-off
| ~   vibrato
| +   harmonic
| x   Mute note
| b   Bend
| pb  Pre-bend
| br  Bend release
| pbr Pre-bend release
| brb Bend release bend

************************************
Добавлено: 23.04.2016
Другие материалы по этой песне:

Страница создана 11.11.2014
http://primanota.ru/seether/suffer-it-all-chords.htm
Привет, Гость.
Предлагаем пройти революционный курс по гитаре.
Подарок от PrimaNota.Ru, забирай!