PrimaNota.ru - самый крупный в мире бесплатный архив песенных текстов, аккордов, табулатур и нот


Seether - No Shelter - таба, видео

Регистрация Запомнить меня
Войти через:  Facebook Google Twitter Vk Yandex Mail.ru

Seether - No Shelter - таба, видео

Печатать
Просмотров: 167
So, Seether just released a bad-ass new song called "No Shelter"
yesterday (2/10/09), and I HAD to play it. This song is REALLY easy to play.
It sounds similar to "Fallen," so if you know how to play that,
it should be a breeze. There are probably a few parts off because what Shaun/Troy are 
are chords that have a SLIGHT variation, but, whatev.

Anyway, here it is. I hope you enjoy. Any corrections that you think should be made 
either be in a comment or e-mailed to me at greenaiden555@hotmail.com.

Intro(x4)

d|--------------------------------------------------------------------------|
A|--------------------------------------------------------------------------|
F|--------------------------------------------------------------------------|
C|--------2h3---------------------------------------------------------------|
G|------------3-3/5----------(4th time)-5\3-3-------------------------------|
C|----0-0-------------------------------------------------------------------|
*NOTE* This part is ALSO played during the verses with distortion on after
4 times through of clean.

2nd half of Intro/Outro
(This part 3 times)
d|------------------------------------------------------------------------|
A|------------------------------------------------------------------------|
F|----------------------------------5/7-----------------------------------|
C|-------0-0----5h7--3--5---5-3-0(slide up during outro only (weird part))
G|-------0-0----5h7--3--5---5-3-0---3/5-----------------------------------|
C|-------0-0----5h7--3--5---5-3-0-----------------------------------------|
         . .                . . .
(After the three times(4th time))
d|------------------------------------------------------------------------|
A|------------------------------------------------------------------------|
F|----------------------7-------------------------------------------------|
C|-------0-0----5h7--3--7-------------------------------------------------|
G|-------0-0----5h7--3--5-------------------------------------------------|
C|-------0-0----5h7--3--5-------------------------------------------------|
         . .

Verses*
*Note: They're played this way, but you can add some spice by improving.
It sounds like Shaun and Troy don't follow a set pattern here.
d|--------------------------------------------------------------------------|
A|--------------------------------------------------------------------------|
F|--------------------------------------------------------------------------|
C|--------2h3---------------2h3-------------2h3-------------2h3-------------|
G|------------3-3/5--------------3-3/5-----------3-3/5----------3-3/5-------|
C|----0-0--------------0-0---------------0-0-------------0-0----------------|

Pre Chorus
d|--------------------------------------------------------------------------|
A|--------------------------------------------------------------------------|
F|--------------------------------------5/7---------------------------------|
C|--10----12-------0-0--5h7--3-5--5-3-0-------------------------------------|
G|--8-----10-------0-0--5h7--3-5--5-3-0-3/5---------------------------------|
C|--8-x8--10--x8---0-0--5h7--3-5--5-3-0-------------------------------------|
                   . .            . . .
Chorus
d|-------------------------------------------------------------------------|
A|-------------------------------------------------------------------------|
F|-----7----10-----7-----5-5--3-3------------------------------------------|
C|-----7----10-----7-----5-5--3-3------------------------------------------|
G|-----5-x8--8-x8--5-x8--3-3--1-1------------------------------------------|
C|-------------------------------------------------------------------------|

Bridge
d|--------------------------------------------------------------------------|
A|--------------------------------------------------------------------------|
F|----3------7------------------------------3-------5-----------------------|
C|----3------7------(Just improv the solo)--3-------5-----------------------|
G|----1-x16--5-x8---------------------------1-x16---3-x8--------------------|
C|--------------------------------------------------------------------------|

Note: The song's in the key of F, like Fallen and NO Jesus Christ, so
improving shouldn't be that hard for the solo (I'm telling you to improv
'cause I've got NO idea what they're doing).
Добавлено: 26.04.2012
Другие материалы по этой песне:

Страница создана 05.03.2012
http://primanota.ru/seether/no-shelter-chords.htm
Привет, Гость.
Предлагаем пройти революционный курс по гитаре.
Подарок от PrimaNota.Ru, забирай!